  0
SECTION
  2
HEADER
  9
$ACADVER
  1
AC1021
  9
$ACADMAINTVER
 70
    25
  9
$DWGCODEPAGE
  3
ANSI_1252
  9
$INSBASE
 10
0.0
 20
0.0
 30
0.0
  9
$EXTMIN
 10
262.009986171856
 20
228.782139490376
 30
0.0
  9
$EXTMAX
 10
583.132405712667
 20
430.156376028225
 30
0.0
  9
$LIMMIN
 10
0.0
 20
0.0
  9
$LIMMAX
 10
12.0
 20
9.0
  9
$ORTHOMODE
 70
     0
  9
$REGENMODE
 70
     1
  9
$FILLMODE
 70
     1
  9
$QTEXTMODE
 70
     0
  9
$MIRRTEXT
 70
     1
  9
$LTSCALE
 40
1.0
  9
$ATTMODE
 70
     1
  9
$TEXTSIZE
 40
0.2
  9
$TRACEWID
 40
0.05
  9
$TEXTSTYLE
  7
Standard
  9
$CLAYER
  8
0
  9
$CELTYPE
  6
ByLayer
  9
$CECOLOR
 62
   256
  9
$CELTSCALE
 40
1.0
  9
$DISPSILH
 70
     0
  9
$DIMSCALE
 40
1.0
  9
$DIMASZ
 40
0.18
  9
$DIMEXO
 40
0.0625
  9
$DIMDLI
 40
0.38
  9
$DIMRND
 40
0.0
  9
$DIMDLE
 40
0.0
  9
$DIMEXE
 40
0.18
  9
$DIMTP
 40
0.0
  9
$DIMTM
 40
0.0
  9
$DIMTXT
 40
0.18
  9
$DIMCEN
 40
0.09
  9
$DIMTSZ
 40
0.0
  9
$DIMTOL
 70
     0
  9
$DIMLIM
 70
     0
  9
$DIMTIH
 70
     1
  9
$DIMTOH
 70
     1
  9
$DIMSE1
 70
     0
  9
$DIMSE2
 70
     0
  9
$DIMTAD
 70
     0
  9
$DIMZIN
 70
     0
  9
$DIMBLK
  1

  9
$DIMASO
 70
     1
  9
$DIMSHO
 70
     1
  9
$DIMPOST
  1

  9
$DIMAPOST
  1

  9
$DIMALT
 70
     0
  9
$DIMALTD
 70
     2
  9
$DIMALTF
 40
25.4
  9
$DIMLFAC
 40
1.0
  9
$DIMTOFL
 70
     0
  9
$DIMTVP
 40
0.0
  9
$DIMTIX
 70
     0
  9
$DIMSOXD
 70
     0
  9
$DIMSAH
 70
     0
  9
$DIMBLK1
  1

  9
$DIMBLK2
  1

  9
$DIMSTYLE
  2
Standard
  9
$DIMCLRD
 70
     0
  9
$DIMCLRE
 70
     0
  9
$DIMCLRT
 70
     0
  9
$DIMTFAC
 40
1.0
  9
$DIMGAP
 40
0.09
  9
$DIMJUST
 70
     0
  9
$DIMSD1
 70
     0
  9
$DIMSD2
 70
     0
  9
$DIMTOLJ
 70
     1
  9
$DIMTZIN
 70
     0
  9
$DIMALTZ
 70
     0
  9
$DIMALTTZ
 70
     0
  9
$DIMUPT
 70
     0
  9
$DIMDEC
 70
     4
  9
$DIMTDEC
 70
     4
  9
$DIMALTU
 70
     2
  9
$DIMALTTD
 70
     2
  9
$DIMTXSTY
  7
Standard
  9
$DIMAUNIT
 70
     0
  9
$DIMADEC
 70
     0
  9
$DIMALTRND
 40
0.0
  9
$DIMAZIN
 70
     0
  9
$DIMDSEP
 70
    46
  9
$DIMATFIT
 70
     3
  9
$DIMFRAC
 70
     0
  9
$DIMLDRBLK
  1

  9
$DIMLUNIT
 70
     2
  9
$DIMLWD
 70
    -2
  9
$DIMLWE
 70
    -2
  9
$DIMTMOVE
 70
     0
  9
$DIMFXL
 40
1.0
  9
$DIMFXLON
 70
     0
  9
$DIMJOGANG
 40
0.78539816339745
  9
$DIMTFILL
 70
     0
  9
$DIMTFILLCLR
 70
     0
  9
$DIMARCSYM
 70
     0
  9
$DIMLTYPE
  6

  9
$DIMLTEX1
  6

  9
$DIMLTEX2
  6

  9
$LUNITS
 70
     2
  9
$LUPREC
 70
     4
  9
$SKETCHINC
 40
0.1
  9
$FILLETRAD
 40
0.5
  9
$AUNITS
 70
     0
  9
$AUPREC
 70
     0
  9
$MENU
  1
.
  9
$ELEVATION
 40
0.0
  9
$PELEVATION
 40
0.0
  9
$THICKNESS
 40
0.0
  9
$LIMCHECK
 70
     0
  9
$CHAMFERA
 40
0.5
  9
$CHAMFERB
 40
0.5
  9
$CHAMFERC
 40
1.0
  9
$CHAMFERD
 40
0.0
  9
$SKPOLY
 70
     0
  9
$TDCREATE
 40
2456171.488179167
  9
$TDUCREATE
 40
2456171.113179167
  9
$TDUPDATE
 40
2456171.488179178
  9
$TDUUPDATE
 40
2456171.113179178
  9
$TDINDWG
 40
0.0000000116
  9
$TDUSRTIMER
 40
0.0000000116
  9
$USRTIMER
 70
     1
  9
$ANGBASE
 50
0.0
  9
$ANGDIR
 70
     0
  9
$PDMODE
 70
     0
  9
$PDSIZE
 40
0.0
  9
$PLINEWID
 40
0.0
  9
$SPLFRAME
 70
     0
  9
$SPLINETYPE
 70
     6
  9
$SPLINESEGS
 70
     8
  9
$HANDSEED
  5
2A1
  9
$SURFTAB1
 70
     6
  9
$SURFTAB2
 70
     6
  9
$SURFTYPE
 70
     6
  9
$SURFU
 70
     6
  9
$SURFV
 70
     6
  9
$UCSBASE
  2

  9
$UCSNAME
  2

  9
$UCSORG
 10
0.0
 20
0.0
 30
0.0
  9
$UCSXDIR
 10
1.0
 20
0.0
 30
0.0
  9
$UCSYDIR
 10
0.0
 20
1.0
 30
0.0
  9
$UCSORTHOREF
  2

  9
$UCSORTHOVIEW
 70
     0
  9
$UCSORGTOP
 10
0.0
 20
0.0
 30
0.0
  9
$UCSORGBOTTOM
 10
0.0
 20
0.0
 30
0.0
  9
$UCSORGLEFT
 10
0.0
 20
0.0
 30
0.0
  9
$UCSORGRIGHT
 10
0.0
 20
0.0
 30
0.0
  9
$UCSORGFRONT
 10
0.0
 20
0.0
 30
0.0
  9
$UCSORGBACK
 10
0.0
 20
0.0
 30
0.0
  9
$PUCSBASE
  2

  9
$PUCSNAME
  2

  9
$PUCSORG
 10
0.0
 20
0.0
 30
0.0
  9
$PUCSXDIR
 10
1.0
 20
0.0
 30
0.0
  9
$PUCSYDIR
 10
0.0
 20
1.0
 30
0.0
  9
$PUCSORTHOREF
  2

  9
$PUCSORTHOVIEW
 70
     0
  9
$PUCSORGTOP
 10
0.0
 20
0.0
 30
0.0
  9
$PUCSORGBOTTOM
 10
0.0
 20
0.0
 30
0.0
  9
$PUCSORGLEFT
 10
0.0
 20
0.0
 30
0.0
  9
$PUCSORGRIGHT
 10
0.0
 20
0.0
 30
0.0
  9
$PUCSORGFRONT
 10
0.0
 20
0.0
 30
0.0
  9
$PUCSORGBACK
 10
0.0
 20
0.0
 30
0.0
  9
$USERI1
 70
     0
  9
$USERI2
 70
     0
  9
$USERI3
 70
     0
  9
$USERI4
 70
     0
  9
$USERI5
 70
     0
  9
$USERR1
 40
16.0
  9
$USERR2
 40
0.0
  9
$USERR3
 40
0.0
  9
$USERR4
 40
0.0
  9
$USERR5
 40
0.0
  9
$WORLDVIEW
 70
     1
  9
$SHADEDGE
 70
     3
  9
$SHADEDIF
 70
    70
  9
$TILEMODE
 70
     1
  9
$MAXACTVP
 70
    64
  9
$PINSBASE
 10
0.0
 20
0.0
 30
0.0
  9
$PLIMCHECK
 70
     0
  9
$PEXTMIN
 10
1.00000000000000E+20
 20
1.00000000000000E+20
 30
1.00000000000000E+20
  9
$PEXTMAX
 10
-1.00000000000000E+20
 20
-1.00000000000000E+20
 30
-1.00000000000000E+20
  9
$PLIMMIN
 10
0.0
 20
0.0
  9
$PLIMMAX
 10
12.0
 20
9.0
  9
$UNITMODE
 70
     0
  9
$VISRETAIN
 70
     1
  9
$PLINEGEN
 70
     0
  9
$PSLTSCALE
 70
     1
  9
$TREEDEPTH
 70
  3020
  9
$CMLSTYLE
  2
Standard
  9
$CMLJUST
 70
     0
  9
$CMLSCALE
 40
1.0
  9
$PROXYGRAPHICS
 70
     1
  9
$MEASUREMENT
 70
     1
  9
$CELWEIGHT
370
    -1
  9
$ENDCAPS
280
     0
  9
$JOINSTYLE
280
     0
  9
$LWDISPLAY
290
     0
  9
$INSUNITS
 70
     1
  9
$HYPERLINKBASE
  1

  9
$STYLESHEET
  1

  9
$XEDIT
290
     1
  9
$CEPSNTYPE
380
     0
  9
$PSTYLEMODE
290
     1
  9
$FINGERPRINTGUID
  2
{BC31A636-B237-4E3D-A345-E4FAE1496C3E}
  9
$VERSIONGUID
  2
{FAEB1C32-E019-11D5-929B-00C0DF256EC4}
  9
$EXTNAMES
290
     1
  9
$PSVPSCALE
 40
0.0
  9
$OLESTARTUP
290
     0
  9
$SORTENTS
280
   127
  9
$INDEXCTL
280
     0
  9
$HIDETEXT
280
     1
  9
$XCLIPFRAME
290
     0
  9
$HALOGAP
280
     0
  9
$OBSCOLOR
 70
   257
  9
$OBSLTYPE
280
     0
  9
$INTERSECTIONDISPLAY
280
     0
  9
$INTERSECTIONCOLOR
 70
   257
  9
$DIMASSOC
280
     2
  9
$PROJECTNAME
  1

  9
$CAMERADISPLAY
290
     0
  9
$LENSLENGTH
 40
50.0
  9
$CAMERAHEIGHT
 40
0.0
  9
$STEPSPERSEC
 40
2.0
  9
$STEPSIZE
 40
6.0
  9
$3DDWFPREC
 40
2.0
  9
$PSOLWIDTH
 40
0.25
  9
$PSOLHEIGHT
 40
4.0
  9
$LOFTANG1
 40
1.5707963267949
  9
$LOFTANG2
 40
1.5707963267949
  9
$LOFTMAG1
 40
0.0
  9
$LOFTMAG2
 40
0.0
  9
$LOFTPARAM
 70
     7
  9
$LOFTNORMALS
280
     1
  9
$LATITUDE
 40
37.795
  9
$LONGITUDE
 40
-122.394
  9
$NORTHDIRECTION
 40
0.0
  9
$TIMEZONE
 70
 -8000
  9
$LIGHTGLYPHDISPLAY
280
     1
  9
$TILEMODELIGHTSYNCH
280
     1
  9
$SOLIDHIST
280
     1
  9
$SHOWHIST
280
     1
  9
$DWFFRAME
280
     2
  9
$DGNFRAME
280
     2
  9
$REALWORLDSCALE
290
     1
  9
$INTERFERECOLOR
 62
   256
  9
$CSHADOW
280
     0
  9
$SHADOWPLANELOCATION
 40
0.0
  0
ENDSEC
  0
SECTION
  2
CLASSES
  0
CLASS
  1
ACDBDICTIONARYWDFLT
  2
AcDbDictionaryWithDefault
  3
ObjectDBX Classes
 90
        0
 91
        4
280
     0
281
     0
  0
CLASS
  1
VISUALSTYLE
  2
AcDbVisualStyle
  3
ObjectDBX Classes
 90
     4095
 91
        4
280
     0
281
     0
  0
CLASS
  1

  2
exOdDbCircle
  3

 90
        0
 91
        4
280
     0
281
     1
  0
ENDSEC
  0
SECTION
  2
TABLES
  0
TABLE
  2
VPORT
  5
8
330
0
100
AcDbSymbolTable
 70
     1
  0
VPORT
  5
29
330
8
100
AcDbSymbolTableRecord
100
AcDbViewportTableRecord
  2
*Active
 70
     0
 10
0.0
 20
0.0
 11
1.0
 21
1.0
 12
422.5711959422615
 22
329.4692577593005
 13
0.0
 23
0.0
 14
0.5
 24
0.5
 15
0.5
 25
0.5
 16
0.0
 26
0.0
 36
1.0
 17
0.0
 27
0.0
 37
0.0
 40
221.5116601916339
 41
1.60267857142857
 42
50.0
 43
0.0
 44
0.0
 50
0.0
 51
0.0
 71
     0
 72
   100
 73
     1
 74
     3
 75
     0
 76
     0
 77
     0
 78
     0
281
     0
 65
     1
110
0.0
120
0.0
130
0.0
111
1.0
121
0.0
131
0.0
112
0.0
122
1.0
132
0.0
 79
     0
146
0.0
 60
     3
 61
     5
292
     1
282
     1
141
0.0
142
0.0
 63
   256
  0
ENDTAB
  0
TABLE
  2
LTYPE
  5
5
330
0
100
AcDbSymbolTable
 70
     8
  0
LTYPE
  5
14
330
5
100
AcDbSymbolTableRecord
100
AcDbLinetypeTableRecord
  2
ByBlock
 70
     0
  3

 72
    65
 73
     0
 40
0.0
  0
LTYPE
  5
15
330
5
100
AcDbSymbolTableRecord
100
AcDbLinetypeTableRecord
  2
ByLayer
 70
     0
  3

 72
    65
 73
     0
 40
0.0
  0
LTYPE
  5
16
330
5
100
AcDbSymbolTableRecord
100
AcDbLinetypeTableRecord
  2
Continuous
 70
     0
  3
Solid line
 72
    65
 73
     0
 40
0.0
  0
LTYPE
  5
3B
330
5
100
AcDbSymbolTableRecord
100
AcDbLinetypeTableRecord
  2
DASHED
 70
     0
  3
Dashed
 72
    65
 73
     2
 40
15.0
 49
7.0
 74
     0
 49
-8.0
 74
     0
  0
LTYPE
  5
3C
330
5
100
AcDbSymbolTableRecord
100
AcDbLinetypeTableRecord
  2
DOTTED
 70
     0
  3
Dotted
 72
    65
 73
     2
 40
1.0
 49
0.0
 74
     0
 49
-1.0
 74
     0
  0
LTYPE
  5
3D
330
5
100
AcDbSymbolTableRecord
100
AcDbLinetypeTableRecord
  2
DOT_CENTER
 70
     0
  3
Dot_Center
 72
    65
 73
     4
 40
14.0
 49
12.0
 74
     0
 49
-1.0
 74
     0
 49
0.0
 74
     0
 49
-1.0
 74
     0
  0
LTYPE
  5
3E
330
5
100
AcDbSymbolTableRecord
100
AcDbLinetypeTableRecord
  2
LONG_DASHED
 70
     0
  3
Long_Dashed
 72
    65
 73
     2
 40
15.0
 49
10.0
 74
     0
 49
-5.0
 74
     0
  0
LTYPE
  5
3F
330
5
100
AcDbSymbolTableRecord
100
AcDbLinetypeTableRecord
  2
DASH_CENTER
 70
     0
  3
Dash_Center
 72
    65
 73
     4
 40
14.0
 49
11.0
 74
     0
 49
-1.0
 74
     0
 49
1.0
 74
     0
 49
-1.0
 74
     0
  0
LTYPE
  5
40
330
5
100
AcDbSymbolTableRecord
100
AcDbLinetypeTableRecord
  2
PHANTOM
 70
     0
  3
Phantom
 72
    65
 73
     6
 40
13.0
 49
10.0
 74
     0
 49
-1.0
 74
     0
 49
0.0
 74
     0
 49
-1.0
 74
     0
 49
0.0
 74
     0
 49
-1.0
 74
     0
  0
LTYPE
  5
41
330
5
100
AcDbSymbolTableRecord
100
AcDbLinetypeTableRecord
  2
CENTER_DASH_DASH
 70
     0
  3
Center_Dash_Dash
 72
    65
 73
     6
 40
14.0
 49
9.0
 74
     0
 49
-1.0
 74
     0
 49
1.0
 74
     0
 49
-1.0
 74
     0
 49
1.0
 74
     0
 49
-1.0
 74
     0
  0
ENDTAB
  0
TABLE
  2
LAYER
  5
2
330
0
100
AcDbSymbolTable
 70
     3
  0
LAYER
  5
10
330
2
100
AcDbSymbolTableRecord
100
AcDbLayerTableRecord
  2
0
 70
     0
 62
     7
  6
Continuous
370
    -3
390
F
347
0
  0
LAYER
  5
42
330
2
100
AcDbSymbolTableRecord
100
AcDbLayerTableRecord
  2
1
 70
     0
 62
     7
  6
Continuous
370
    -3
390
F
347
0
  0
LAYER
  5
43
330
2
100
AcDbSymbolTableRecord
100
AcDbLayerTableRecord
  2
2
 70
     0
 62
     7
  6
Continuous
370
    -3
390
F
347
0
  0
ENDTAB
  0
TABLE
  2
STYLE
  5
3
330
0
100
AcDbSymbolTable
 70
     1
  0
STYLE
  5
11
330
3
100
AcDbSymbolTableRecord
100
AcDbTextStyleTableRecord
  2
Standard
 70
     0
 40
0.0
 41
1.0
 50
0.0
 71
     0
 42
0.2
  3
txt
  4

  0
ENDTAB
  0
TABLE
  2
VIEW
  5
6
330
0
100
AcDbSymbolTable
 70
     0
  0
ENDTAB
  0
TABLE
  2
UCS
  5
7
330
0
100
AcDbSymbolTable
 70
     0
  0
ENDTAB
  0
TABLE
  2
APPID
  5
9
330
0
100
AcDbSymbolTable
 70
     1
  0
APPID
  5
12
330
9
100
AcDbSymbolTableRecord
100
AcDbRegAppTableRecord
  2
ACAD
 70
     0
  0
ENDTAB
  0
TABLE
  2
DIMSTYLE
  5
A
330
0
100
AcDbSymbolTable
 70
     1
100
AcDbDimStyleTable
  0
DIMSTYLE
105
27
330
A
100
AcDbSymbolTableRecord
100
AcDbDimStyleTableRecord
  2
Standard
 70
     0
340
11
  0
ENDTAB
  0
TABLE
  2
BLOCK_RECORD
  5
1
330
0
100
AcDbSymbolTable
 70
     1
  0
BLOCK_RECORD
  5
1F
330
1
100
AcDbSymbolTableRecord
100
AcDbBlockTableRecord
  2
*Model_Space
340
22
 70
     0
280
     1
281
     0
  0
BLOCK_RECORD
  5
1B
330
1
100
AcDbSymbolTableRecord
100
AcDbBlockTableRecord
  2
*Paper_Space
340
1E
 70
     0
280
     1
281
     0
  0
BLOCK_RECORD
  5
23
330
1
100
AcDbSymbolTableRecord
100
AcDbBlockTableRecord
  2
*Paper_Space0
340
26
 70
     0
280
     1
281
     0
  0
ENDTAB
  0
ENDSEC
  0
SECTION
  2
BLOCKS
  0
BLOCK
  5
20
330
1F
100
AcDbEntity
  8
0
100
AcDbBlockBegin
  2
*Model_Space
 70
     0
 10
0.0
 20
0.0
 30
0.0
  3
*Model_Space
  1

  0
ENDBLK
  5
21
330
1F
100
AcDbEntity
  8
0
100
AcDbBlockEnd
  0
BLOCK
  5
1C
330
1B
100
AcDbEntity
 67
     1
  8
0
100
AcDbBlockBegin
  2
*Paper_Space
 70
     0
 10
0.0
 20
0.0
 30
0.0
  3
*Paper_Space
  1

  0
ENDBLK
  5
1D
330
1B
100
AcDbEntity
 67
     1
  8
0
100
AcDbBlockEnd
  0
BLOCK
  5
24
330
23
100
AcDbEntity
  8
0
100
AcDbBlockBegin
  2
*Paper_Space0
 70
     0
 10
0.0
 20
0.0
 30
0.0
  3
*Paper_Space0
  1

  0
ENDBLK
  5
25
330
23
100
AcDbEntity
  8
0
100
AcDbBlockEnd
  0
ENDSEC
  0
SECTION
  2
ENTITIES
  0
POINT
  5
44
330
1F
100
AcDbEntity
  8
0
 62
     7
100
AcDbPoint
 10
493.882405712676
 20
295.145016781218
 30
0.0
  0
POINT
  5
45
330
1F
100
AcDbEntity
  8
0
 62
     7
100
AcDbPoint
 10
571.882405712676
 20
295.145016781218
 30
0.0
  0
POINT
  5
46
330
1F
100
AcDbEntity
  8
0
 62
     7
100
AcDbPoint
 10
489.066839962902
 20
348.406376028225
 30
0.0
  0
POINT
  5
47
330
1F
100
AcDbEntity
  8
0
 62
     7
100
AcDbPoint
 10
521.079353410993
 20
348.406376028225
 30
0.0
  0
POINT
  5
48
330
1F
100
AcDbEntity
  8
1
 62
     7
100
AcDbPoint
 10
347.259986174904
 20
285.406376028225
 30
0.0
  0
POINT
  5
49
330
1F
100
AcDbEntity
  8
1
 62
     7
100
AcDbPoint
 10
315.72445226897
 20
430.156376028225
 30
0.0
  0
POINT
  5
4A
330
1F
100
AcDbEntity
  8
1
 62
     7
100
AcDbPoint
 10
347.259986174904
 20
285.406376028225
 30
0.0
  0
POINT
  5
4B
330
1F
100
AcDbEntity
  8
1
 62
     7
100
AcDbPoint
 10
349.009986174902
 20
287.656376028223
 30
0.0
  0
POINT
  5
4C
330
1F
100
AcDbEntity
  8
1
 62
     7
100
AcDbPoint
 10
352.639532459584
 20
422.156376028225
 30
0.0
  0
POINT
  5
4D
330
1F
100
AcDbEntity
  8
1
 62
     7
100
AcDbPoint
 10
347.259986174904
 20
285.406376028225
 30
0.0
  0
POINT
  5
4E
330
1F
100
AcDbEntity
  8
1
 62
     7
100
AcDbPoint
 10
352.639532459584
 20
422.156376028225
 30
0.0
  0
POINT
  5
4F
330
1F
100
AcDbEntity
  8
1
 62
     7
100
AcDbPoint
 10
349.009986174902
 20
287.656376028223
 30
0.0
  0
POINT
  5
50
330
1F
100
AcDbEntity
  8
1
 62
     7
100
AcDbPoint
 10
362.509986177952
 20
336.656376028222
 30
0.0
  0
POINT
  5
51
330
1F
100
AcDbEntity
  8
1
 62
     7
100
AcDbPoint
 10
262.009986171856
 20
336.656376028222
 30
0.0
  0
POINT
  5
52
330
1F
100
AcDbEntity
  8
1
 62
     7
100
AcDbPoint
 10
502.882405712678
 20
296.708702288971
 30
0.0
  0
POINT
  5
53
330
1F
100
AcDbEntity
  8
1
 62
     7
100
AcDbPoint
 10
562.882405712674
 20
296.708702288971
 30
0.0
  0
POINT
  5
54
330
1F
100
AcDbEntity
  8
1
 62
     7
100
AcDbPoint
 10
362.50998617489
 20
230.282139490376
 30
0.0
  0
POINT
  5
55
330
1F
100
AcDbEntity
  8
1
 62
     7
100
AcDbPoint
 10
312.259986174904
 20
254.532139490377
 30
0.0
  0
POINT
  5
56
330
1F
100
AcDbEntity
  8
1
 62
     7
100
AcDbPoint
 10
344.759986174901
 20
228.782139490376
 30
0.0
  0
POINT
  5
57
330
1F
100
AcDbEntity
  8
1
 62
     7
100
AcDbPoint
 10
362.50998617489
 20
230.282139490376
 30
0.0
  0
LINE
  5
58
330
1F
100
AcDbEntity
  8
1
  6
Continuous
 62
     7
100
AcDbLine
 10
350.17581837276
 20
312.28057647065
 30
0.0
 11
350.08831837276
 21
312.18057647065
 31
0.0
  0
LINE
  5
59
330
1F
100
AcDbEntity
  8
1
  6
Continuous
 62
     7
100
AcDbLine
 10
350.27581837276
 20
312.49307647065
 30
0.0
 11
350.17581837276
 21
312.28057647065
 31
0.0
  0
LINE
  5
5A
330
1F
100
AcDbEntity
  8
1
  6
Continuous
 62
     7
100
AcDbLine
 10
350.36331837276
 20
312.71807647065
 30
0.0
 11
350.27581837276
 21
312.49307647065
 31
0.0
  0
LINE
  5
5B
330
1F
100
AcDbEntity
  8
1
  6
Continuous
 62
     7
100
AcDbLine
 10
350.38831837276
 20
313.05557647065
 30
0.0
 11
350.36331837276
 21
312.71807647065
 31
0.0
  0
LINE
  5
5C
330
1F
100
AcDbEntity
  8
1
  6
Continuous
 62
     7
100
AcDbLine
 10
350.58831837276
 20
312.18057647065
 30
0.0
 11
350.45081837276
 21
312.24307647065
 31
0.0
  0
LINE
  5
5D
330
1F
100
AcDbEntity
  8
1
  6
Continuous
 62
     7
100
AcDbLine
 10
350.67581837276
 20
312.34307647065
 30
0.0
 11
350.58831837276
 21
312.18057647065
 31
0.0
  0
LINE
  5
5E
330
1F
100
AcDbEntity
  8
1
  6
Continuous
 62
     7
100
AcDbLine
 10
350.72581837276
 20
312.61807647065
 30
0.0
 11
350.67581837276
 21
312.34307647065
 31
0.0
  0
LINE
  5
5F
330
1F
100
AcDbEntity
  8
1
  6
Continuous
 62
     7
100
AcDbLine
 10
350.72581837276
 20
312.86807647065
 30
0.0
 11
350.72581837276
 21
312.61807647065
 31
0.0
  0
LINE
  5
60
330
1F
100
AcDbEntity
  8
1
  6
Continuous
 62
     7
100
AcDbLine
 10
350.08831837276
 20
312.86807647065
 30
0.0
 11
350.72581837276
 21
312.86807647065
 31
0.0
  0
LINE
  5
61
330
1F
100
AcDbEntity
  8
1
  6
Continuous
 62
     7
100
AcDbLine
 10
349.42581837276
 20
312.18057647065
 30
0.0
 11
349.75081837276
 21
312.18057647065
 31
0.0
  0
LINE
  5
62
330
1F
100
AcDbEntity
  8
1
  6
Continuous
 62
     7
100
AcDbLine
 10
349.42581837276
 20
313.11807647065
 30
0.0
 11
349.42581837276
 21
312.18057647065
 31
0.0
  0
LINE
  5
63
330
1F
100
AcDbEntity
  8
1
  6
Continuous
 62
     7
100
AcDbLine
 10
349.13831837276
 20
312.71807647065
 30
0.0
 11
349.13831837276
 21
312.99307647065
 31
0.0
  0
LINE
  5
64
330
1F
100
AcDbEntity
  8
1
  6
Continuous
 62
     7
100
AcDbLine
 10
349.67581837276
 20
312.71807647065
 30
0.0
 11
349.13831837276
 21
312.71807647065
 31
0.0
  0
LINE
  5
65
330
1F
100
AcDbEntity
  8
1
  6
Continuous
 62
     7
100
AcDbLine
 10
349.67581837276
 20
312.99307647065
 30
0.0
 11
349.67581837276
 21
312.71807647065
 31
0.0
  0
LINE
  5
66
330
1F
100
AcDbEntity
  8
1
  6
Continuous
 62
     7
100
AcDbLine
 10
349.75081837276
 20
312.18057647065
 30
0.0
 11
349.75081837276
 21
312.55557647065
 31
0.0
  0
LINE
  5
67
330
1F
100
AcDbEntity
  8
1
  6
Continuous
 62
     7
100
AcDbLine
 10
349.08831837276
 20
312.18057647065
 30
0.0
 11
349.42581837276
 21
312.18057647065
 31
0.0
  0
LINE
  5
68
330
1F
100
AcDbEntity
  8
1
  6
Continuous
 62
     7
100
AcDbLine
 10
349.08831837276
 20
312.55557647065
 30
0.0
 11
349.08831837276
 21
312.18057647065
 31
0.0
  0
LINE
  5
69
330
1F
100
AcDbEntity
  8
1
  6
Continuous
 62
     7
100
AcDbLine
 10
345.37581837276
 20
312.31182647065
 30
0.0
 11
345.28831837276
 21
312.21182647065
 31
0.0
  0
LINE
  5
6A
330
1F
100
AcDbEntity
  8
1
  6
Continuous
 62
     7
100
AcDbLine
 10
345.47581837276
 20
312.52432647065
 30
0.0
 11
345.37581837276
 21
312.31182647065
 31
0.0
  0
LINE
  5
6B
330
1F
100
AcDbEntity
  8
1
  6
Continuous
 62
     7
100
AcDbLine
 10
345.56331837276
 20
312.74932647065
 30
0.0
 11
345.47581837276
 21
312.52432647065
 31
0.0
  0
LINE
  5
6C
330
1F
100
AcDbEntity
  8
1
  6
Continuous
 62
     7
100
AcDbLine
 10
345.58831837276
 20
313.08682647065
 30
0.0
 11
345.56331837276
 21
312.74932647065
 31
0.0
  0
LINE
  5
6D
330
1F
100
AcDbEntity
  8
1
  6
Continuous
 62
     7
100
AcDbLine
 10
345.78831837276
 20
312.21182647065
 30
0.0
 11
345.65081837276
 21
312.27432647065
 31
0.0
  0
LINE
  5
6E
330
1F
100
AcDbEntity
  8
1
  6
Continuous
 62
     7
100
AcDbLine
 10
345.87581837276
 20
312.37432647065
 30
0.0
 11
345.78831837276
 21
312.21182647065
 31
0.0
  0
LINE
  5
6F
330
1F
100
AcDbEntity
  8
1
  6
Continuous
 62
     7
100
AcDbLine
 10
345.92581837276
 20
312.64932647065
 30
0.0
 11
345.87581837276
 21
312.37432647065
 31
0.0
  0
LINE
  5
70
330
1F
100
AcDbEntity
  8
1
  6
Continuous
 62
     7
100
AcDbLine
 10
345.92581837276
 20
312.89932647065
 30
0.0
 11
345.92581837276
 21
312.64932647065
 31
0.0
  0
LINE
  5
71
330
1F
100
AcDbEntity
  8
1
  6
Continuous
 62
     7
100
AcDbLine
 10
345.28831837276
 20
312.89932647065
 30
0.0
 11
345.92581837276
 21
312.89932647065
 31
0.0
  0
LINE
  5
72
330
1F
100
AcDbEntity
  8
1
  6
Continuous
 62
     7
100
AcDbLine
 10
344.92581837276
 20
312.27432647065
 30
0.0
 11
345.01331837276
 21
312.18682647065
 31
0.0
  0
LINE
  5
73
330
1F
100
AcDbEntity
  8
1
  6
Continuous
 62
     7
100
AcDbLine
 10
344.81331837276
 20
312.39932647065
 30
0.0
 11
344.92581837276
 21
312.27432647065
 31
0.0
  0
LINE
  5
74
330
1F
100
AcDbEntity
  8
1
  6
Continuous
 62
     7
100
AcDbLine
 10
344.76331837276
 20
312.49932647065
 30
0.0
 11
344.81331837276
 21
312.39932647065
 31
0.0
  0
LINE
  5
75
330
1F
100
AcDbEntity
  8
1
  6
Continuous
 62
     7
100
AcDbLine
 10
344.65081837276
 20
312.74932647065
 30
0.0
 11
344.76331837276
 21
312.49932647065
 31
0.0
  0
LINE
  5
76
330
1F
100
AcDbEntity
  8
1
  6
Continuous
 62
     7
100
AcDbLine
 10
344.42581837276
 20
312.31182647065
 30
0.0
 11
344.28831837276
 21
312.18682647065
 31
0.0
  0
LINE
  5
77
330
1F
100
AcDbEntity
  8
1
  6
Continuous
 62
     7
100
AcDbLine
 10
344.51331837276
 20
312.43682647065
 30
0.0
 11
344.42581837276
 21
312.31182647065
 31
0.0
  0
LINE
  5
78
330
1F
100
AcDbEntity
  8
1
  6
Continuous
 62
     7
100
AcDbLine
 10
344.58831837276
 20
312.56182647065
 30
0.0
 11
344.51331837276
 21
312.43682647065
 31
0.0
  0
LINE
  5
79
330
1F
100
AcDbEntity
  8
1
  6
Continuous
 62
     7
100
AcDbLine
 10
344.65081837276
 20
312.74932647065
 30
0.0
 11
344.58831837276
 21
312.56182647065
 31
0.0
  0
LINE
  5
7A
330
1F
100
AcDbEntity
  8
1
  6
Continuous
 62
     7
100
AcDbLine
 10
344.65081837276
 20
313.02432647065
 30
0.0
 11
344.65081837276
 21
312.74932647065
 31
0.0
  0
LINE
  5
7B
330
1F
100
AcDbEntity
  8
1
  6
Continuous
 62
     7
100
AcDbLine
 10
344.45081837276
 20
313.02432647065
 30
0.0
 11
344.65081837276
 21
313.02432647065
 31
0.0
  0
LINE
  5
7C
102
{ACAD_REACTORS
330
29D
330
29D
102
}
330
1F
100
AcDbEntity
  8
1
  6
Continuous
 62
     7
100
AcDbLine
 10
348.526631548173
 20
308.368076470653
 30
0.0
 11
348.678257899001
 21
308.368076470653
 31
0.0
  0
LINE
  5
7D
102
{ACAD_REACTORS
330
29D
330
29D
102
}
330
1F
100
AcDbEntity
  8
1
  6
Continuous
 62
     7
100
AcDbLine
 10
348.754071074415
 20
308.443889646065
 30
0.0
 11
348.754071074415
 21
310.490845382239
 31
0.0
  0
LINE
  5
7E
102
{ACAD_REACTORS
330
29D
330
29D
102
}
330
1F
100
AcDbEntity
  8
1
  6
Continuous
 62
     7
100
AcDbLine
 10
348.450818372759
 20
308.443889646066
 30
0.0
 11
348.450818372759
 21
310.490845382241
 31
0.0
  0
LINE
  5
7F
102
{ACAD_REACTORS
330
29D
330
29D
102
}
330
1F
100
AcDbEntity
  8
1
  6
Continuous
 62
     7
100
AcDbLine
 10
348.829884249829
 20
310.869911259309
 30
0.0
 11
350.876839986004
 21
310.869911259309
 31
0.0
  0
LINE
  5
80
102
{ACAD_REACTORS
330
29D
330
29D
102
}
330
1F
100
AcDbEntity
  8
1
  6
Continuous
 62
     7
100
AcDbLine
 10
351.255905863073
 20
310.490845382241
 30
0.0
 11
351.255905863073
 21
310.187592680585
 31
0.0
  0
LINE
  5
81
102
{ACAD_REACTORS
330
29D
330
29D
102
}
330
1F
100
AcDbEntity
  8
1
  6
Continuous
 62
     7
100
AcDbLine
 10
348.829884249829
 20
310.566658557655
 30
0.0
 11
350.876839986004
 21
310.566658557655
 31
0.0
  0
LINE
  5
82
102
{ACAD_REACTORS
330
29D
330
29D
102
}
330
1F
100
AcDbEntity
  8
1
  6
Continuous
 62
     7
100
AcDbLine
 10
350.952653161418
 20
310.490845382239
 30
0.0
 11
350.952653161418
 21
310.187592680585
 31
0.0
  0
LINE
  5
83
102
{ACAD_REACTORS
330
29D
330
29D
102
}
330
1F
100
AcDbEntity
  8
1
  6
Continuous
 62
     7
100
AcDbLine
 10
350.876839986004
 20
310.111779505171
 30
0.0
 11
349.512202828554
 21
310.11177950517
 31
0.0
  0
LINE
  5
84
102
{ACAD_REACTORS
330
29D
330
29D
102
}
330
1F
100
AcDbEntity
  8
1
  6
Continuous
 62
     7
100
AcDbLine
 10
351.20910532109
 20
308.577923488314
 30
0.0
 11
351.133292145676
 21
308.446611216615
 31
0.0
  0
LINE
  5
85
102
{ACAD_REACTORS
330
29D
330
29D
102
}
330
1F
100
AcDbEntity
  8
1
  6
Continuous
 62
     7
100
AcDbLine
 10
349.322669890019
 20
309.404432948852
 30
0.0
 11
351.029729422118
 21
308.418861668472
 31
0.0
  0
LINE
  5
86
102
{ACAD_REACTORS
330
29D
330
29D
102
}
330
1F
100
AcDbEntity
  8
1
  6
Continuous
 62
     7
100
AcDbLine
 10
349.512202828554
 20
309.808526803516
 30
0.0
 11
350.876839986004
 21
309.808526803516
 31
0.0
  0
LINE
  5
87
102
{ACAD_REACTORS
330
29D
330
29D
102
}
330
1F
100
AcDbEntity
  8
1
  6
Continuous
 62
     7
100
AcDbLine
 10
349.474296240847
 20
309.667057492251
 30
0.0
 11
351.181355772947
 21
308.681486211872
 31
0.0
  0
LINE
  5
88
330
1F
100
AcDbEntity
  8
1
  6
Continuous
 62
     7
100
AcDbLine
 10
347.45081837276
 20
307.868076470649
 30
0.0
 11
347.45081837276
 21
311.36807647065
 31
0.0
  0
LINE
  5
89
330
1F
100
AcDbEntity
  8
1
  6
Continuous
 62
     7
100
AcDbLine
 10
347.45081837276
 20
311.36807647065
 30
0.0
 11
347.45081837276
 21
313.86807647065
 31
0.0
  0
LINE
  5
8A
330
1F
100
AcDbEntity
  8
1
  6
Continuous
 62
     7
100
AcDbLine
 10
342.65081837276
 20
308.61807647065
 30
0.0
 11
342.65081837276
 21
311.368076470649
 31
0.0
  0
LINE
  5
8B
102
{ACAD_REACTORS
330
29E
330
29E
102
}
330
1F
100
AcDbEntity
  8
1
  6
Continuous
 62
     7
100
AcDbLine
 10
343.726631548173
 20
308.368076470652
 30
0.0
 11
343.878257899001
 21
308.368076470652
 31
0.0
  0
LINE
  5
8C
102
{ACAD_REACTORS
330
29E
330
29E
102
}
330
1F
100
AcDbEntity
  8
1
  6
Continuous
 62
     7
100
AcDbLine
 10
343.954071074415
 20
308.443889646064
 30
0.0
 11
343.954071074415
 21
310.490845382238
 31
0.0
  0
LINE
  5
8D
102
{ACAD_REACTORS
330
29E
330
29E
102
}
330
1F
100
AcDbEntity
  8
1
  6
Continuous
 62
     7
100
AcDbLine
 10
343.650818372759
 20
308.443889646065
 30
0.0
 11
343.650818372759
 21
310.490845382239
 31
0.0
  0
LINE
  5
8E
102
{ACAD_REACTORS
330
29E
330
29E
102
}
330
1F
100
AcDbEntity
  8
1
  6
Continuous
 62
     7
100
AcDbLine
 10
344.029884249829
 20
310.869911259308
 30
0.0
 11
346.076839986004
 21
310.869911259308
 31
0.0
  0
LINE
  5
8F
102
{ACAD_REACTORS
330
29E
330
29E
102
}
330
1F
100
AcDbEntity
  8
1
  6
Continuous
 62
     7
100
AcDbLine
 10
346.455905863073
 20
310.490845382239
 30
0.0
 11
346.455905863073
 21
310.187592680584
 31
0.0
  0
LINE
  5
90
102
{ACAD_REACTORS
330
29E
330
29E
102
}
330
1F
100
AcDbEntity
  8
1
  6
Continuous
 62
     7
100
AcDbLine
 10
344.029884249829
 20
310.566658557654
 30
0.0
 11
346.076839986004
 21
310.566658557654
 31
0.0
  0
LINE
  5
91
102
{ACAD_REACTORS
330
29E
330
29E
102
}
330
1F
100
AcDbEntity
  8
1
  6
Continuous
 62
     7
100
AcDbLine
 10
346.152653161418
 20
310.490845382238
 30
0.0
 11
346.152653161418
 21
310.187592680584
 31
0.0
  0
LINE
  5
92
102
{ACAD_REACTORS
330
29E
330
29E
102
}
330
1F
100
AcDbEntity
  8
1
  6
Continuous
 62
     7
100
AcDbLine
 10
346.076839986004
 20
310.11177950517
 30
0.0
 11
344.712202828554
 21
310.111779505169
 31
0.0
  0
LINE
  5
93
102
{ACAD_REACTORS
330
29E
330
29E
102
}
330
1F
100
AcDbEntity
  8
1
  6
Continuous
 62
     7
100
AcDbLine
 10
346.40910532109
 20
308.577923488313
 30
0.0
 11
346.333292145676
 21
308.446611216614
 31
0.0
  0
LINE
  5
94
102
{ACAD_REACTORS
330
29E
330
29E
102
}
330
1F
100
AcDbEntity
  8
1
  6
Continuous
 62
     7
100
AcDbLine
 10
344.522669890019
 20
309.40443294885
 30
0.0
 11
346.229729422119
 21
308.418861668471
 31
0.0
  0
LINE
  5
95
102
{ACAD_REACTORS
330
29E
330
29E
102
}
330
1F
100
AcDbEntity
  8
1
  6
Continuous
 62
     7
100
AcDbLine
 10
344.712202828554
 20
309.808526803515
 30
0.0
 11
346.076839986005
 21
309.808526803515
 31
0.0
  0
LINE
  5
96
102
{ACAD_REACTORS
330
29E
330
29E
102
}
330
1F
100
AcDbEntity
  8
1
  6
Continuous
 62
     7
100
AcDbLine
 10
344.674296240847
 20
309.66705749225
 30
0.0
 11
346.381355772947
 21
308.681486211871
 31
0.0
  0
LINE
  5
97
330
1F
100
AcDbEntity
  8
1
  6
Continuous
 62
     7
100
AcDbLine
 10
352.25081837276
 20
313.118076470649
 30
0.0
 11
352.25081837276
 21
311.368076470649
 31
0.0
  0
LINE
  5
98
330
1F
100
AcDbEntity
  8
1
  6
Continuous
 62
     7
100
AcDbLine
 10
343.200818372759
 20
313.868076470649
 30
0.0
 11
351.70081837276
 21
313.868076470649
 31
0.0
  0
LINE
  5
99
330
1F
100
AcDbEntity
  8
1
  6
Continuous
 62
     7
100
AcDbLine
 10
351.70081837276
 20
307.868076470649
 30
0.0
 11
343.20081837276
 21
307.86807647065
 31
0.0
  0
LINE
  5
9A
330
1F
100
AcDbEntity
  8
1
  6
Continuous
 62
     7
100
AcDbLine
 10
342.65081837276
 20
311.368076470649
 30
0.0
 11
352.25081837276
 21
311.368076470649
 31
0.0
  0
LINE
  5
9B
330
1F
100
AcDbEntity
  8
1
  6
Continuous
 62
     7
100
AcDbLine
 10
342.65081837276
 20
311.368076470649
 30
0.0
 11
342.650818372759
 21
313.118076470649
 31
0.0
  0
LINE
  5
9C
330
1F
100
AcDbEntity
  8
1
  6
Continuous
 62
     7
100
AcDbLine
 10
352.25081837276
 20
311.368076470649
 30
0.0
 11
352.25081837276
 21
308.618076470649
 31
0.0
  0
LINE
  5
9D
330
1F
100
AcDbEntity
  8
1
  6
Continuous
 62
     7
100
AcDbLine
 10
352.259986174904
 20
367.906376028222
 30
0.0
 11
352.259986174904
 21
340.906376028222
 31
0.0
  0
LINE
  5
9E
330
1F
100
AcDbEntity
  8
1
  6
Continuous
 62
     7
100
AcDbLine
 10
313.759986174904
 20
339.406376028222
 30
0.0
 11
350.759986174904
 21
339.406376028222
 31
0.0
  0
LINE
  5
9F
330
1F
100
AcDbEntity
  8
1
  6
Continuous
 62
     7
100
AcDbLine
 10
312.259986174904
 20
340.906376028222
 30
0.0
 11
312.259986174904
 21
367.906376028222
 31
0.0
  0
LINE
  5
A0
330
1F
100
AcDbEntity
  8
1
  6
Continuous
 62
     7
100
AcDbLine
 10
313.759986174904
 20
369.406376028222
 30
0.0
 11
350.759986174904
 21
369.406376028222
 31
0.0
  0
LINE
  5
A1
330
1F
100
AcDbEntity
  8
1
  6
Continuous
 62
     7
100
AcDbLine
 10
272.259986174904
 20
339.406376028222
 30
0.0
 11
352.259986174904
 21
339.406376028222
 31
0.0
  0
LINE
  5
A2
330
1F
100
AcDbEntity
  8
1
  6
DASHED
 62
     7
100
AcDbLine
 10
311.009986174574
 20
426.656376028949
 30
0.0
 11
311.009986174574
 21
426.217625528549
 31
0.0
  0
LINE
  5
A3
330
1F
100
AcDbEntity
  8
1
  6
DASHED
 62
     7
100
AcDbLine
 10
308.795520080836
 20
430.156376028225
 30
0.0
 11
315.72445226897
 21
430.156376028225
 31
0.0
  0
LINE
  5
A4
330
1F
100
AcDbEntity
  8
1
  6
DASHED
 62
     7
100
AcDbLine
 10
317.492219221937
 20
429.424142981191
 30
0.0
 11
324.02775312787
 21
422.888609075258
 31
0.0
  0
LINE
  5
A5
330
1F
100
AcDbEntity
  8
1
  6
DASHED
 62
     7
100
AcDbLine
 10
300.492219221937
 20
422.888609075258
 30
0.0
 11
307.027753127869
 21
429.424142981191
 31
0.0
  0
LINE
  5
A6
330
1F
100
AcDbEntity
  8
1
  6
DASHED
 62
     7
100
AcDbLine
 10
452.035719412681
 20
422.156376028225
 30
0.0
 11
452.035719412681
 21
430.1563760275
 31
0.0
  0
LINE
  5
A7
330
1F
100
AcDbEntity
  8
1
  6
DASHED
 62
     7
100
AcDbLine
 10
451.235719412681
 20
422.156376028225
 30
0.0
 11
451.235719412681
 21
430.156376027499
 31
0.0
  0
LINE
  5
A8
330
1F
100
AcDbEntity
  8
1
  6
DASHED
 62
     7
100
AcDbLine
 10
452.035719412681
 20
430.1563760275
 30
0.0
 11
451.235719412681
 21
430.156376027499
 31
0.0
  0
LINE
  5
A9
330
1F
100
AcDbEntity
  8
1
  6
DASHED
 62
     7
100
AcDbLine
 10
520.382405712676
 20
411.120842122292
 30
0.0
 11
520.382405712676
 21
421.120842122292
 31
0.0
  0
LINE
  5
AA
330
1F
100
AcDbEntity
  8
1
  6
DASHED
 62
     7
100
AcDbLine
 10
545.382405712676
 20
411.120842122292
 30
0.0
 11
545.382405712676
 21
409.656376028225
 31
0.0
  0
LINE
  5
AB
330
1F
100
AcDbEntity
  8
1
  6
Continuous
 62
     7
100
AcDbLine
 10
525.11573904601
 20
405.823042694891
 30
0.0
 11
525.649072379343
 21
405.823042694891
 31
0.0
  0
LINE
  5
AC
330
1F
100
AcDbEntity
  8
1
  6
Continuous
 62
     7
100
AcDbLine
 10
525.11573904601
 20
405.256376028224
 30
0.0
 11
525.11573904601
 21
405.823042694891
 31
0.0
  0
LINE
  5
AD
330
1F
100
AcDbEntity
  8
1
  6
Continuous
 62
     7
100
AcDbLine
 10
524.21573904601
 20
404.923042694892
 30
0.0
 11
524.782405712676
 21
404.923042694892
 31
0.0
  0
LINE
  5
AE
330
1F
100
AcDbEntity
  8
1
  6
Continuous
 62
     7
100
AcDbLine
 10
524.21573904601
 20
404.389709361558
 30
0.0
 11
524.21573904601
 21
404.923042694892
 31
0.0
  0
LINE
  5
AF
330
1F
100
AcDbEntity
  8
1
  6
Continuous
 62
     7
100
AcDbLine
 10
524.782405712676
 20
404.389709361558
 30
0.0
 11
524.21573904601
 21
404.389709361558
 31
0.0
  0
LINE
  5
B0
330
1F
100
AcDbEntity
  8
1
  6
Continuous
 62
     7
100
AcDbLine
 10
525.11573904601
 20
403.489709361558
 30
0.0
 11
525.11573904601
 21
404.056376028224
 31
0.0
  0
LINE
  5
B1
330
1F
100
AcDbEntity
  8
1
  6
Continuous
 62
     7
100
AcDbLine
 10
525.649072379343
 20
403.489709361558
 30
0.0
 11
525.11573904601
 21
403.489709361558
 31
0.0
  0
LINE
  5
B2
330
1F
100
AcDbEntity
  8
1
  6
Continuous
 62
     7
100
AcDbLine
 10
525.649072379343
 20
404.056376028224
 30
0.0
 11
525.649072379343
 21
403.489709361558
 31
0.0
  0
LINE
  5
B3
330
1F
100
AcDbEntity
  8
1
  6
Continuous
 62
     7
100
AcDbLine
 10
526.549072379343
 20
404.389709361558
 30
0.0
 11
525.982405712676
 21
404.389709361558
 31
0.0
  0
LINE
  5
B4
330
1F
100
AcDbEntity
  8
1
  6
Continuous
 62
     7
100
AcDbLine
 10
526.549072379343
 20
404.923042694892
 30
0.0
 11
526.549072379343
 21
404.389709361558
 31
0.0
  0
LINE
  5
B5
330
1F
100
AcDbEntity
  8
1
  6
Continuous
 62
     7
100
AcDbLine
 10
525.982405712676
 20
404.923042694892
 30
0.0
 11
526.549072379343
 21
404.923042694892
 31
0.0
  0
LINE
  5
B6
330
1F
100
AcDbEntity
  8
1
  6
Continuous
 62
     7
100
AcDbLine
 10
525.649072379343
 20
405.823042694891
 30
0.0
 11
525.649072379343
 21
405.256376028224
 31
0.0
  0
LINE
  5
B7
330
1F
100
AcDbEntity
  8
1
  6
Continuous
 62
     7
100
AcDbLine
 10
540.11573904601
 20
405.823042694891
 30
0.0
 11
540.649072379343
 21
405.823042694891
 31
0.0
  0
LINE
  5
B8
330
1F
100
AcDbEntity
  8
1
  6
Continuous
 62
     7
100
AcDbLine
 10
540.11573904601
 20
405.256376028224
 30
0.0
 11
540.11573904601
 21
405.823042694891
 31
0.0
  0
LINE
  5
B9
330
1F
100
AcDbEntity
  8
1
  6
Continuous
 62
     7
100
AcDbLine
 10
539.21573904601
 20
404.923042694892
 30
0.0
 11
539.782405712676
 21
404.923042694892
 31
0.0
  0
LINE
  5
BA
330
1F
100
AcDbEntity
  8
1
  6
Continuous
 62
     7
100
AcDbLine
 10
539.21573904601
 20
404.389709361558
 30
0.0
 11
539.21573904601
 21
404.923042694892
 31
0.0
  0
LINE
  5
BB
330
1F
100
AcDbEntity
  8
1
  6
Continuous
 62
     7
100
AcDbLine
 10
539.782405712676
 20
404.389709361558
 30
0.0
 11
539.21573904601
 21
404.389709361558
 31
0.0
  0
LINE
  5
BC
330
1F
100
AcDbEntity
  8
1
  6
Continuous
 62
     7
100
AcDbLine
 10
540.11573904601
 20
403.489709361558
 30
0.0
 11
540.11573904601
 21
404.056376028224
 31
0.0
  0
LINE
  5
BD
330
1F
100
AcDbEntity
  8
1
  6
Continuous
 62
     7
100
AcDbLine
 10
540.649072379343
 20
403.489709361558
 30
0.0
 11
540.11573904601
 21
403.489709361558
 31
0.0
  0
LINE
  5
BE
330
1F
100
AcDbEntity
  8
1
  6
Continuous
 62
     7
100
AcDbLine
 10
540.649072379343
 20
404.056376028224
 30
0.0
 11
540.649072379343
 21
403.489709361558
 31
0.0
  0
LINE
  5
BF
330
1F
100
AcDbEntity
  8
1
  6
Continuous
 62
     7
100
AcDbLine
 10
541.549072379343
 20
404.389709361558
 30
0.0
 11
540.982405712676
 21
404.389709361558
 31
0.0
  0
LINE
  5
C0
330
1F
100
AcDbEntity
  8
1
  6
Continuous
 62
     7
100
AcDbLine
 10
541.549072379343
 20
404.923042694892
 30
0.0
 11
541.549072379343
 21
404.389709361558
 31
0.0
  0
LINE
  5
C1
330
1F
100
AcDbEntity
  8
1
  6
Continuous
 62
     7
100
AcDbLine
 10
540.982405712676
 20
404.923042694892
 30
0.0
 11
541.549072379343
 21
404.923042694892
 31
0.0
  0
LINE
  5
C2
330
1F
100
AcDbEntity
  8
1
  6
Continuous
 62
     7
100
AcDbLine
 10
540.649072379343
 20
405.823042694891
 30
0.0
 11
540.649072379343
 21
405.256376028224
 31
0.0
  0
LINE
  5
C3
330
1F
100
AcDbEntity
  8
1
  6
Continuous
 62
     7
100
AcDbLine
 10
272.060613352993
 20
299.781376028225
 30
0.0
 11
272.460613352993
 21
299.781376028225
 31
0.0
  0
LINE
  5
C4
330
1F
100
AcDbEntity
  8
1
  6
Continuous
 62
     7
100
AcDbLine
 10
272.460613352993
 20
299.781376028225
 30
0.0
 11
272.460613352993
 21
299.356376028225
 31
0.0
  0
LINE
  5
C5
330
1F
100
AcDbEntity
  8
1
  6
Continuous
 62
     7
100
AcDbLine
 10
272.710613352993
 20
299.106376028225
 30
0.0
 11
273.135613352993
 21
299.106376028225
 31
0.0
  0
LINE
  5
C6
330
1F
100
AcDbEntity
  8
1
  6
Continuous
 62
     7
100
AcDbLine
 10
273.135613352993
 20
299.106376028225
 30
0.0
 11
273.135613352993
 21
298.706376028225
 31
0.0
  0
LINE
  5
C7
330
1F
100
AcDbEntity
  8
1
  6
Continuous
 62
     7
100
AcDbLine
 10
273.135613352993
 20
298.706376028225
 30
0.0
 11
272.710613352993
 21
298.706376028225
 31
0.0
  0
LINE
  5
C8
330
1F
100
AcDbEntity
  8
1
  6
Continuous
 62
     7
100
AcDbLine
 10
272.460613352993
 20
298.456376028225
 30
0.0
 11
272.460613352993
 21
298.031376028225
 31
0.0
  0
LINE
  5
C9
330
1F
100
AcDbEntity
  8
1
  6
Continuous
 62
     7
100
AcDbLine
 10
272.460613352993
 20
298.031376028225
 30
0.0
 11
272.060613352993
 21
298.031376028225
 31
0.0
  0
LINE
  5
CA
330
1F
100
AcDbEntity
  8
1
  6
Continuous
 62
     7
100
AcDbLine
 10
272.060613352993
 20
298.031376028225
 30
0.0
 11
272.060613352993
 21
298.456376028225
 31
0.0
  0
LINE
  5
CB
330
1F
100
AcDbEntity
  8
1
  6
Continuous
 62
     7
100
AcDbLine
 10
271.810613352993
 20
298.706376028225
 30
0.0
 11
271.385613352993
 21
298.706376028225
 31
0.0
  0
LINE
  5
CC
330
1F
100
AcDbEntity
  8
1
  6
Continuous
 62
     7
100
AcDbLine
 10
271.385613352993
 20
298.706376028225
 30
0.0
 11
271.385613352993
 21
299.106376028225
 31
0.0
  0
LINE
  5
CD
330
1F
100
AcDbEntity
  8
1
  6
Continuous
 62
     7
100
AcDbLine
 10
271.385613352993
 20
299.106376028225
 30
0.0
 11
271.810613352993
 21
299.106376028225
 31
0.0
  0
LINE
  5
CE
330
1F
100
AcDbEntity
  8
1
  6
Continuous
 62
     7
100
AcDbLine
 10
272.060613352993
 20
299.356376028225
 30
0.0
 11
272.060613352993
 21
299.781376028225
 31
0.0
  0
LINE
  5
CF
330
1F
100
AcDbEntity
  8
1
  6
Continuous
 62
     7
100
AcDbLine
 10
352.059358996815
 20
299.781376028225
 30
0.0
 11
352.459358996815
 21
299.781376028225
 31
0.0
  0
LINE
  5
D0
330
1F
100
AcDbEntity
  8
1
  6
Continuous
 62
     7
100
AcDbLine
 10
352.059358996815
 20
299.356376028225
 30
0.0
 11
352.059358996815
 21
299.781376028225
 31
0.0
  0
LINE
  5
D1
330
1F
100
AcDbEntity
  8
1
  6
Continuous
 62
     7
100
AcDbLine
 10
351.384358996815
 20
299.106376028225
 30
0.0
 11
351.809358996815
 21
299.106376028225
 31
0.0
  0
LINE
  5
D2
330
1F
100
AcDbEntity
  8
1
  6
Continuous
 62
     7
100
AcDbLine
 10
351.384358996815
 20
298.706376028225
 30
0.0
 11
351.384358996815
 21
299.106376028225
 31
0.0
  0
LINE
  5
D3
330
1F
100
AcDbEntity
  8
1
  6
Continuous
 62
     7
100
AcDbLine
 10
351.809358996815
 20
298.706376028225
 30
0.0
 11
351.384358996815
 21
298.706376028225
 31
0.0
  0
LINE
  5
D4
330
1F
100
AcDbEntity
  8
1
  6
Continuous
 62
     7
100
AcDbLine
 10
352.059358996815
 20
298.031376028225
 30
0.0
 11
352.059358996815
 21
298.456376028225
 31
0.0
  0
LINE
  5
D5
330
1F
100
AcDbEntity
  8
1
  6
Continuous
 62
     7
100
AcDbLine
 10
352.459358996815
 20
298.031376028225
 30
0.0
 11
352.059358996815
 21
298.031376028225
 31
0.0
  0
LINE
  5
D6
330
1F
100
AcDbEntity
  8
1
  6
Continuous
 62
     7
100
AcDbLine
 10
352.459358996815
 20
298.456376028225
 30
0.0
 11
352.459358996815
 21
298.031376028225
 31
0.0
  0
LINE
  5
D7
330
1F
100
AcDbEntity
  8
1
  6
Continuous
 62
     7
100
AcDbLine
 10
353.134358996815
 20
298.706376028225
 30
0.0
 11
352.709358996815
 21
298.706376028225
 31
0.0
  0
LINE
  5
D8
330
1F
100
AcDbEntity
  8
1
  6
Continuous
 62
     7
100
AcDbLine
 10
353.134358996815
 20
299.106376028225
 30
0.0
 11
353.134358996815
 21
298.706376028225
 31
0.0
  0
LINE
  5
D9
330
1F
100
AcDbEntity
  8
1
  6
Continuous
 62
     7
100
AcDbLine
 10
352.709358996815
 20
299.106376028225
 30
0.0
 11
353.134358996815
 21
299.106376028225
 31
0.0
  0
LINE
  5
DA
330
1F
100
AcDbEntity
  8
1
  6
Continuous
 62
     7
100
AcDbLine
 10
352.459358996815
 20
299.781376028225
 30
0.0
 11
352.459358996815
 21
299.356376028225
 31
0.0
  0
LINE
  5
DB
330
1F
100
AcDbEntity
  8
2
  6
Continuous
 62
     7
100
AcDbLine
 10
502.882405712676
 20
285.406376028225
 30
0.0
 11
497.882405712676
 21
285.406376028225
 31
0.0
  0
LINE
  5
DC
330
1F
100
AcDbEntity
  8
2
  6
Continuous
 62
     7
100
AcDbLine
 10
497.882405712676
 20
285.406376028225
 30
0.0
 11
497.882405712676
 21
287.656376028223
 31
0.0
  0
LINE
  5
DD
330
1F
100
AcDbEntity
  8
2
  6
Continuous
 62
     7
100
AcDbLine
 10
507.882405712676
 20
285.406376028225
 30
0.0
 11
502.882405712676
 21
285.406376028225
 31
0.0
  0
LINE
  5
DE
330
1F
100
AcDbEntity
  8
2
  6
Continuous
 62
     7
100
AcDbLine
 10
507.882405712676
 20
287.656376028223
 30
0.0
 11
507.882405712676
 21
285.406376028225
 31
0.0
  0
LINE
  5
DF
330
1F
100
AcDbEntity
  8
2
  6
Continuous
 62
     7
100
AcDbLine
 10
517.882405712676
 20
285.406376028225
 30
0.0
 11
512.882405712676
 21
285.406376028225
 31
0.0
  0
LINE
  5
E0
330
1F
100
AcDbEntity
  8
2
  6
Continuous
 62
     7
100
AcDbLine
 10
512.882405712676
 20
285.406376028225
 30
0.0
 11
512.882405712676
 21
287.656376028223
 31
0.0
  0
LINE
  5
E1
330
1F
100
AcDbEntity
  8
2
  6
Continuous
 62
     7
100
AcDbLine
 10
517.882405712676
 20
285.406376028225
 30
0.0
 11
512.882405712676
 21
285.406376028225
 31
0.0
  0
LINE
  5
E2
330
1F
100
AcDbEntity
  8
2
  6
Continuous
 62
     7
100
AcDbLine
 10
522.882405712676
 20
285.406376028225
 30
0.0
 11
517.882405712676
 21
285.406376028225
 31
0.0
  0
LINE
  5
E3
330
1F
100
AcDbEntity
  8
2
  6
Continuous
 62
     7
100
AcDbLine
 10
522.882405712676
 20
287.656376028223
 30
0.0
 11
522.882405712676
 21
285.406376028225
 31
0.0
  0
LINE
  5
E4
330
1F
100
AcDbEntity
  8
2
  6
Continuous
 62
     7
100
AcDbLine
 10
562.882405712676
 20
285.406376028225
 30
0.0
 11
557.882405712676
 21
285.406376028225
 31
0.0
  0
LINE
  5
E5
330
1F
100
AcDbEntity
  8
2
  6
Continuous
 62
     7
100
AcDbLine
 10
557.882405712676
 20
285.406376028225
 30
0.0
 11
557.882405712676
 21
287.656376028223
 31
0.0
  0
LINE
  5
E6
330
1F
100
AcDbEntity
  8
2
  6
Continuous
 62
     7
100
AcDbLine
 10
567.882405712676
 20
285.406376028225
 30
0.0
 11
562.882405712676
 21
285.406376028225
 31
0.0
  0
LINE
  5
E7
330
1F
100
AcDbEntity
  8
2
  6
Continuous
 62
     7
100
AcDbLine
 10
567.882405712676
 20
287.656376028223
 30
0.0
 11
567.882405712676
 21
285.406376028225
 31
0.0
  0
LINE
  5
E8
330
1F
100
AcDbEntity
  8
2
  6
Continuous
 62
     7
100
AcDbLine
 10
547.882405712676
 20
285.406376028225
 30
0.0
 11
542.882405712676
 21
285.406376028225
 31
0.0
  0
LINE
  5
E9
330
1F
100
AcDbEntity
  8
2
  6
Continuous
 62
     7
100
AcDbLine
 10
542.882405712676
 20
285.406376028225
 30
0.0
 11
542.882405712676
 21
287.656376028223
 31
0.0
  0
LINE
  5
EA
330
1F
100
AcDbEntity
  8
2
  6
Continuous
 62
     7
100
AcDbLine
 10
552.882405712676
 20
285.406376028225
 30
0.0
 11
547.882405712676
 21
285.406376028225
 31
0.0
  0
LINE
  5
EB
330
1F
100
AcDbEntity
  8
2
  6
Continuous
 62
     7
100
AcDbLine
 10
552.882405712676
 20
287.656376028223
 30
0.0
 11
552.882405712676
 21
285.406376028225
 31
0.0
  0
LINE
  5
EC
330
1F
100
AcDbEntity
  8
2
  6
Continuous
 62
     7
100
AcDbLine
 10
532.882405712676
 20
285.406376028225
 30
0.0
 11
527.882405712676
 21
285.406376028225
 31
0.0
  0
LINE
  5
ED
330
1F
100
AcDbEntity
  8
1
  6
Continuous
 62
     7
100
AcDbLine
 10
532.882405712676
 20
287.656376028223
 30
0.0
 11
496.132405712678
 21
287.656376028223
 31
0.0
  0
LINE
  5
EE
330
1F
100
AcDbEntity
  8
2
  6
Continuous
 62
     7
100
AcDbLine
 10
527.882405712676
 20
285.406376028225
 30
0.0
 11
527.882405712676
 21
287.656376028223
 31
0.0
  0
LINE
  5
EF
330
1F
100
AcDbEntity
  8
2
  6
Continuous
 62
     7
100
AcDbLine
 10
571.382405712548
 20
288.656376028225
 30
0.0
 11
494.382405712549
 21
288.656376028226
 31
0.0
  0
LINE
  5
F0
330
1F
100
AcDbEntity
  8
2
  6
Continuous
 62
     7
100
AcDbLine
 10
537.882405712676
 20
285.406376028225
 30
0.0
 11
532.882405712676
 21
285.406376028225
 31
0.0
  0
LINE
  5
F1
330
1F
100
AcDbEntity
  8
1
  6
Continuous
 62
     7
100
AcDbLine
 10
569.632405712675
 20
287.656376028223
 30
0.0
 11
532.882405712676
 21
287.656376028223
 31
0.0
  0
LINE
  5
F2
330
1F
100
AcDbEntity
  8
2
  6
Continuous
 62
     7
100
AcDbLine
 10
537.882405712676
 20
287.656376028223
 30
0.0
 11
537.882405712676
 21
285.406376028225
 31
0.0
  0
LINE
  5
F3
330
1F
100
AcDbEntity
  8
1
  6
Continuous
 62
     7
100
AcDbLine
 10
545.382405712676
 20
404.089388730117
 30
0.0
 11
545.382405712676
 21
399.656376028225
 31
0.0
  0
LINE
  5
F4
330
1F
100
AcDbEntity
  8
1
  6
Continuous
 62
     7
100
AcDbLine
 10
545.382405712676
 20
405.223363326332
 30
0.0
 11
545.382405712676
 21
404.089388730117
 31
0.0
  0
LINE
  5
F5
330
1F
100
AcDbEntity
  8
1
  6
Continuous
 62
     7
100
AcDbLine
 10
539.882405712676
 20
417.656376028225
 30
0.0
 11
539.882405712676
 21
420.156376028225
 31
0.0
  0
LINE
  5
F6
330
1F
100
AcDbEntity
  8
1
  6
Continuous
 62
     7
100
AcDbLine
 10
539.882405712676
 20
417.656376028225
 30
0.0
 11
544.650172665643
 21
412.888609075258
 31
0.0
  0
LINE
  5
F7
330
1F
100
AcDbEntity
  8
1
  6
Continuous
 62
     7
100
AcDbLine
 10
525.382405712676
 20
417.156376028225
 30
0.0
 11
527.650172665642
 21
419.424142981191
 31
0.0
  0
LINE
  5
F8
330
1F
100
AcDbEntity
  8
1
  6
Continuous
 62
     7
100
AcDbLine
 10
522.882405712676
 20
414.656376028225
 30
0.0
 11
525.382405712676
 21
417.156376028225
 31
0.0
  0
LINE
  5
F9
330
1F
100
AcDbEntity
  8
1
  6
Continuous
 62
     7
100
AcDbLine
 10
525.882405712676
 20
417.656376028225
 30
0.0
 11
525.882405712676
 21
420.156376028225
 31
0.0
  0
LINE
  5
FA
330
1F
100
AcDbEntity
  8
1
  6
Continuous
 62
     7
100
AcDbLine
 10
519.132405712676
 20
420.656376028225
 30
0.0
 11
519.132405712676
 21
399.656376028225
 31
0.0
  0
LINE
  5
FB
330
1F
100
AcDbEntity
  8
1
  6
Continuous
 62
     7
100
AcDbLine
 10
546.632405712676
 20
420.656376028225
 30
0.0
 11
546.632405712676
 21
422.156376028225
 31
0.0
  0
LINE
  5
FC
330
1F
100
AcDbEntity
  8
1
  6
Continuous
 62
     7
100
AcDbLine
 10
534.132405712676
 20
416.656376028225
 30
0.0
 11
534.132405712676
 21
416.217625527824
 31
0.0
  0
LINE
  5
FD
330
1F
100
AcDbEntity
  8
1
  6
Continuous
 62
     7
100
AcDbLine
 10
531.632405712676
 20
416.656376028225
 30
0.0
 11
531.632405712676
 21
416.217625527824
 31
0.0
  0
LINE
  5
FE
330
1F
100
AcDbEntity
  8
1
  6
Continuous
 62
     7
100
AcDbLine
 10
546.991162731692
 20
404.656376028225
 30
0.0
 11
547.738751757035
 21
404.656376028225
 31
0.0
  0
LINE
  5
FF
330
1F
100
AcDbEntity
  8
1
  6
DOT_CENTER
 62
     2
100
AcDbLine
 10
546.991162731692
 20
404.656376028225
 30
0.0
 11
547.738751757035
 21
404.656376028225
 31
0.0
  0
LINE
  5
100
330
1F
100
AcDbEntity
  8
1
  6
DOT_CENTER
 62
     2
100
AcDbLine
 10
547.049075631373
 20
404.656376028225
 30
0.0
 11
547.788336744266
 21
404.656376028225
 31
0.0
  0
LINE
  5
101
330
1F
100
AcDbEntity
  8
1
  6
Continuous
 62
     7
100
AcDbLine
 10
547.788336744266
 20
404.656376028225
 30
0.0
 11
547.049075631373
 21
404.656376028225
 31
0.0
  0
LINE
  5
102
330
1F
100
AcDbEntity
  8
1
  6
Continuous
 62
     7
100
AcDbLine
 10
517.697802451121
 20
404.656376028225
 30
0.0
 11
518.445391476464
 21
404.656376028225
 31
0.0
  0
LINE
  5
103
330
1F
100
AcDbEntity
  8
1
  6
DOT_CENTER
 62
     2
100
AcDbLine
 10
517.697802451121
 20
404.656376028225
 30
0.0
 11
518.445391476464
 21
404.656376028225
 31
0.0
  0
LINE
  5
104
330
1F
100
AcDbEntity
  8
1
  6
Continuous
 62
     7
100
AcDbLine
 10
520.382405712676
 20
399.656376028225
 30
0.0
 11
520.382405712676
 21
411.120842122292
 31
0.0
  0
LINE
  5
105
330
1F
100
AcDbEntity
  8
1
  6
Continuous
 62
     7
100
AcDbLine
 10
521.11463875971
 20
412.888609075258
 30
0.0
 11
522.882405712676
 21
414.656376028225
 31
0.0
  0
LINE
  5
106
330
1F
100
AcDbEntity
  8
1
  6
Continuous
 62
     7
100
AcDbLine
 10
538.11463875971
 20
419.424142981191
 30
0.0
 11
539.882405712676
 21
417.656376028225
 31
0.0
  0
LINE
  5
107
330
1F
100
AcDbEntity
  8
1
  6
Continuous
 62
     7
100
AcDbLine
 10
545.382405712676
 20
411.120842122292
 30
0.0
 11
545.382405712676
 21
405.223363326332
 31
0.0
  0
LINE
  5
108
330
1F
100
AcDbEntity
  8
1
  6
Continuous
 62
     7
100
AcDbLine
 10
542.882405712676
 20
397.156376028225
 30
0.0
 11
522.882405712676
 21
397.156376028225
 31
0.0
  0
LINE
  5
109
330
1F
100
AcDbEntity
  8
1
  6
Continuous
 62
     7
100
AcDbLine
 10
529.417939618609
 20
420.156376028225
 30
0.0
 11
536.346871806743
 21
420.156376028225
 31
0.0
  0
LINE
  5
10A
330
1F
100
AcDbEntity
  8
1
  6
Continuous
 62
     7
100
AcDbLine
 10
542.882405712676
 20
396.906376028225
 30
0.0
 11
522.882405712676
 21
396.906376028225
 31
0.0
  0
LINE
  5
10B
330
1F
100
AcDbEntity
  8
1
  6
Continuous
 62
     7
100
AcDbLine
 10
520.132405712676
 20
399.656376028225
 30
0.0
 11
520.132405712676
 21
422.156376028225
 31
0.0
  0
LINE
  5
10C
330
1F
100
AcDbEntity
  8
1
  6
Continuous
 62
     7
100
AcDbLine
 10
519.132405712676
 20
422.156376028225
 30
0.0
 11
519.132405712676
 21
420.656376028225
 31
0.0
  0
LINE
  5
10D
330
1F
100
AcDbEntity
  8
1
  6
Continuous
 62
     7
100
AcDbLine
 10
522.882405712676
 20
395.906376028225
 30
0.0
 11
542.882405712676
 21
395.906376028225
 31
0.0
  0
LINE
  5
10E
330
1F
100
AcDbEntity
  8
1
  6
Continuous
 62
     7
100
AcDbLine
 10
525.382405712676
 20
395.906376028225
 30
0.0
 11
525.382405712676
 21
396.906376028225
 31
0.0
  0
LINE
  5
10F
330
1F
100
AcDbEntity
  8
1
  6
Continuous
 62
     7
100
AcDbLine
 10
545.632405712676
 20
399.656376028225
 30
0.0
 11
545.632405712676
 21
422.156376028225
 31
0.0
  0
LINE
  5
110
330
1F
100
AcDbEntity
  8
1
  6
Continuous
 62
     7
100
AcDbLine
 10
546.632405712676
 20
399.656376028225
 30
0.0
 11
546.632405712676
 21
420.656376028225
 31
0.0
  0
LINE
  5
111
330
1F
100
AcDbEntity
  8
1
  6
Continuous
 62
     7
100
AcDbLine
 10
544.132405712676
 20
420.656376028225
 30
0.0
 11
521.632405712676
 21
420.656376028225
 31
0.0
  0
LINE
  5
112
330
1F
100
AcDbEntity
  8
1
  6
Continuous
 62
     7
100
AcDbLine
 10
540.382405712676
 20
395.906376028225
 30
0.0
 11
540.382405712676
 21
396.906376028225
 31
0.0
  0
LINE
  5
113
330
1F
100
AcDbEntity
  8
1
  6
Continuous
 62
     7
100
AcDbLine
 10
524.882405712676
 20
420.156376028225
 30
0.0
 11
524.882405712676
 21
417.484803152971
 31
0.0
  0
LINE
  5
114
330
1F
100
AcDbEntity
  8
1
  6
Continuous
 62
     7
100
AcDbLine
 10
522.55397858793
 20
415.156376028225
 30
0.0
 11
520.632405712676
 21
415.156376028225
 31
0.0
  0
LINE
  5
115
330
1F
100
AcDbEntity
  8
1
  6
Continuous
 62
     7
100
AcDbLine
 10
520.632405712676
 20
414.156376028225
 30
0.0
 11
522.382405712676
 21
414.156376028225
 31
0.0
  0
LINE
  5
116
330
1F
100
AcDbEntity
  8
1
  6
Continuous
 62
     7
100
AcDbLine
 10
545.132405712676
 20
414.156376028225
 30
0.0
 11
543.382405712677
 21
414.156376028225
 31
0.0
  0
LINE
  5
117
330
1F
100
AcDbEntity
  8
1
  6
Continuous
 62
     7
100
AcDbLine
 10
543.210832837422
 20
415.156376028225
 30
0.0
 11
545.132405712676
 21
415.156376028225
 31
0.0
  0
LINE
  5
118
330
1F
100
AcDbEntity
  8
1
  6
Continuous
 62
     7
100
AcDbLine
 10
540.882405712676
 20
420.156376028225
 30
0.0
 11
540.882405712676
 21
417.484803152971
 31
0.0
  0
LINE
  5
119
330
1F
100
AcDbEntity
  8
1
  6
Continuous
 62
     7
100
AcDbLine
 10
494.382405712575
 20
290.656376028226
 30
0.0
 11
571.382405712574
 21
290.656376028226
 31
0.0
  0
LINE
  5
11A
330
1F
100
AcDbEntity
  8
1
  6
Continuous
 62
     7
100
AcDbLine
 10
484.132405712686
 20
346.906376028225
 30
0.0
 11
484.132405712575
 21
300.406376028225
 31
0.0
  0
LINE
  5
11B
330
1F
100
AcDbEntity
  8
1
  6
Continuous
 62
     7
100
AcDbLine
 10
571.382405712574
 20
290.156376028225
 30
0.0
 11
494.382405712575
 21
290.156376028226
 31
0.0
  0
LINE
  5
11C
330
1F
100
AcDbEntity
  8
1
  6
Continuous
 62
     7
100
AcDbLine
 10
581.632405712574
 20
300.40637602823
 30
0.0
 11
581.632405712686
 21
346.906376028225
 31
0.0
  0
LINE
  5
11D
330
1F
100
AcDbEntity
  8
1
  6
Continuous
 62
     7
100
AcDbLine
 10
581.579110241981
 20
348.406376028225
 30
0.0
 11
532.882405712676
 21
348.406376028225
 31
0.0
  0
LINE
  5
11E
330
1F
100
AcDbEntity
  8
1
  6
Continuous
 62
     7
100
AcDbLine
 10
573.26195199736
 20
420.656376028225
 30
0.0
 11
546.632405712676
 21
420.656376028225
 31
0.0
  0
LINE
  5
11F
330
1F
100
AcDbEntity
  8
1
  6
Continuous
 62
     7
100
AcDbLine
 10
583.132405712667
 20
346.906376028225
 30
0.0
 11
580.757383200003
 21
414.918122253494
 31
0.0
  0
LINE
  5
120
330
1F
100
AcDbEntity
  8
1
  6
Continuous
 62
     7
100
AcDbLine
 10
573.26195199736
 20
422.156376028225
 30
0.0
 11
492.502859427975
 21
422.156376028225
 31
0.0
  0
LINE
  5
121
330
1F
100
AcDbEntity
  8
1
  6
Continuous
 62
     7
100
AcDbLine
 10
571.382405712548
 20
288.656376028225
 30
0.0
 11
494.382405712549
 21
288.656376028226
 31
0.0
  0
LINE
  5
122
330
1F
100
AcDbEntity
  8
1
  6
Continuous
 62
     7
100
AcDbLine
 10
482.632405712668
 20
346.906376028225
 30
0.0
 11
482.632405712665
 21
338.656376028225
 31
0.0
  0
LINE
  5
123
330
1F
100
AcDbEntity
  8
1
  6
Continuous
 62
     7
100
AcDbLine
 10
485.007428225331
 20
414.918122253494
 30
0.0
 11
482.632405712668
 21
346.906376028225
 31
0.0
  0
LINE
  5
124
330
1F
100
AcDbEntity
  8
1
  6
Continuous
 62
     7
100
AcDbLine
 10
583.132405712664
 20
338.656376028225
 30
0.0
 11
583.132405712667
 21
346.906376028225
 31
0.0
  0
LINE
  5
125
330
1F
100
AcDbEntity
  8
1
  6
Continuous
 62
     7
100
AcDbLine
 10
482.632405712665
 20
338.656376028225
 30
0.0
 11
482.632405712575
 21
300.406376028225
 31
0.0
  0
LINE
  5
126
330
1F
100
AcDbEntity
  8
1
  6
Continuous
 62
     7
100
AcDbLine
 10
583.132405712574
 20
300.406376028225
 30
0.0
 11
583.132405712664
 21
338.656376028225
 31
0.0
  0
LINE
  5
127
330
1F
100
AcDbEntity
  8
1
  6
Continuous
 62
     7
100
AcDbLine
 10
495.382405712677
 20
288.656376028226
 30
0.0
 11
495.382405712676
 21
290.156376028226
 31
0.0
  0
LINE
  5
128
330
1F
100
AcDbEntity
  8
1
  6
Continuous
 62
     7
100
AcDbLine
 10
532.882405712676
 20
328.406376028225
 30
0.0
 11
572.882405712676
 21
318.406376028225
 31
0.0
  0
LINE
  5
129
330
1F
100
AcDbEntity
  8
1
  6
Continuous
 62
     7
100
AcDbLine
 10
569.083367607
 20
288.656376028225
 30
0.0
 11
569.083367607
 21
290.156376028225
 31
0.0
  0
LINE
  5
12A
330
1F
100
AcDbEntity
  8
1
  6
Continuous
 62
     7
100
AcDbLine
 10
570.382405712676
 20
288.656376028225
 30
0.0
 11
570.382405712676
 21
290.156376028225
 31
0.0
  0
LINE
  5
12B
330
1F
100
AcDbEntity
  8
1
  6
Continuous
 62
     7
100
AcDbLine
 10
496.681443818354
 20
290.156376028226
 30
0.0
 11
496.681443818354
 21
288.656376028226
 31
0.0
  0
LINE
  5
12C
330
1F
100
AcDbEntity
  8
1
  6
Continuous
 62
     7
100
AcDbLine
 10
519.132405712676
 20
420.656376028225
 30
0.0
 11
492.502859427975
 21
420.656376028225
 31
0.0
  0
LINE
  5
12D
330
1F
100
AcDbEntity
  8
1
  6
Continuous
 62
     7
100
AcDbLine
 10
492.882405712676
 20
293.406376028225
 30
0.0
 11
492.882405712676
 21
318.406376028225
 31
0.0
  0
LINE
  5
12E
330
1F
100
AcDbEntity
  8
1
  6
Continuous
 62
     7
100
AcDbLine
 10
572.882405712676
 20
318.406376028225
 30
0.0
 11
572.882405712676
 21
293.406376028225
 31
0.0
  0
LINE
  5
12F
330
1F
100
AcDbEntity
  8
1
  6
Continuous
 62
     7
100
AcDbLine
 10
493.882405712676
 20
293.406376028225
 30
0.0
 11
493.882405712676
 21
317.625599621821
 31
0.0
  0
LINE
  5
130
330
1F
100
AcDbEntity
  8
1
  6
Continuous
 62
     7
100
AcDbLine
 10
493.882405712676
 20
317.625599621821
 30
0.0
 11
509.952246483198
 21
321.643059814451
 31
0.0
  0
LINE
  5
131
330
1F
100
AcDbEntity
  8
1
  6
Continuous
 62
     7
100
AcDbLine
 10
532.882405712676
 20
327.375599621821
 30
0.0
 11
571.882405712676
 21
317.625599621821
 31
0.0
  0
LINE
  5
132
330
1F
100
AcDbEntity
  8
1
  6
Continuous
 62
     7
100
AcDbLine
 10
571.882405712676
 20
317.625599621821
 30
0.0
 11
571.882405712676
 21
293.406376028225
 31
0.0
  0
LINE
  5
133
330
1F
100
AcDbEntity
  8
1
  6
Continuous
 62
     7
100
AcDbLine
 10
492.882405712676
 20
293.406376028225
 30
0.0
 11
493.882405712676
 21
293.406376028225
 31
0.0
  0
LINE
  5
134
330
1F
100
AcDbEntity
  8
1
  6
Continuous
 62
     7
100
AcDbLine
 10
571.882405712676
 20
293.406376028225
 30
0.0
 11
572.882405712676
 21
293.406376028225
 31
0.0
  0
LINE
  5
135
330
1F
100
AcDbEntity
  8
1
  6
Continuous
 62
     7
100
AcDbLine
 10
486.50651446586
 20
414.86577300844
 30
0.0
 11
484.131491953196
 21
346.854026783171
 31
0.0
  0
LINE
  5
136
330
1F
100
AcDbEntity
  8
1
  6
Continuous
 62
     7
100
AcDbLine
 10
581.633319472139
 20
346.854026783171
 30
0.0
 11
579.258296959475
 21
414.86577300844
 31
0.0
  0
LINE
  5
137
330
1F
100
AcDbEntity
  8
1
  6
Continuous
 62
     7
100
AcDbLine
 10
532.882405712676
 20
348.406376028225
 30
0.0
 11
484.185701183354
 21
348.406376028225
 31
0.0
  0
LINE
  5
138
330
1F
100
AcDbEntity
  8
1
  6
Continuous
 62
     7
100
AcDbLine
 10
492.882405712676
 20
318.406376028225
 30
0.0
 11
509.709710858162
 21
322.613202314597
 31
0.0
  0
LINE
  5
139
330
1F
100
AcDbEntity
  8
1
  6
DOT_CENTER
 62
     6
100
AcDbLine
 10
509.709710858162
 20
322.613202314597
 30
0.0
 11
509.952246483198
 21
321.643059814451
 31
0.0
  0
LINE
  5
13A
330
1F
100
AcDbEntity
  8
1
  6
Continuous
 62
     7
100
AcDbLine
 10
509.952246483198
 20
321.643059814451
 30
0.0
 11
532.882405712676
 21
327.375599621821
 31
0.0
  0
LINE
  5
13B
330
1F
100
AcDbEntity
  8
1
  6
DOT_CENTER
 62
     6
100
AcDbLine
 10
509.952246483198
 20
321.643059814451
 30
0.0
 11
509.709710858162
 21
322.613202314597
 31
0.0
  0
LINE
  5
13C
330
1F
100
AcDbEntity
  8
1
  6
Continuous
 62
     7
100
AcDbLine
 10
509.709710858162
 20
322.613202314597
 30
0.0
 11
532.882405712676
 21
328.406376028225
 31
0.0
  0
LINE
  5
13D
330
1F
100
AcDbEntity
  8
1
  6
Continuous
 62
     7
100
AcDbLine
 10
262.009986171856
 20
336.656376028222
 30
0.0
 11
262.009986174776
 21
300.406376028225
 31
0.0
  0
LINE
  5
13E
330
1F
100
AcDbEntity
  8
2
  6
Continuous
 62
     7
100
AcDbLine
 10
262.009986171856
 20
336.656376028222
 30
0.0
 11
262.259986171834
 21
336.906376028222
 31
0.0
  0
LINE
  5
13F
330
1F
100
AcDbEntity
  8
2
  6
Continuous
 62
     7
100
AcDbLine
 10
262.759986174904
 20
336.906376028222
 30
0.0
 11
262.759986174904
 21
337.156376028225
 31
0.0
  0
LINE
  5
140
330
1F
100
AcDbEntity
  8
1
  6
Continuous
 62
     7
100
AcDbLine
 10
312.259986174904
 20
336.656376028222
 30
0.0
 11
262.009986171856
 21
336.656376028222
 31
0.0
  0
LINE
  5
141
330
1F
100
AcDbEntity
  8
2
  6
Continuous
 62
     7
100
AcDbLine
 10
262.259986171834
 20
336.906376028222
 30
0.0
 11
312.259986174904
 21
336.906376028222
 31
0.0
  0
LINE
  5
142
330
1F
100
AcDbEntity
  8
2
  6
Continuous
 62
     7
100
AcDbLine
 10
282.259986174904
 20
285.406376028225
 30
0.0
 11
277.259986174904
 21
285.406376028225
 31
0.0
  0
LINE
  5
143
330
1F
100
AcDbEntity
  8
2
  6
Continuous
 62
     7
100
AcDbLine
 10
277.259986174904
 20
285.406376028225
 30
0.0
 11
277.259986174904
 21
287.656376028223
 31
0.0
  0
LINE
  5
144
330
1F
100
AcDbEntity
  8
2
  6
Continuous
 62
     7
100
AcDbLine
 10
287.259986174904
 20
285.406376028225
 30
0.0
 11
282.259986174904
 21
285.406376028225
 31
0.0
  0
LINE
  5
145
330
1F
100
AcDbEntity
  8
2
  6
Continuous
 62
     7
100
AcDbLine
 10
287.259986174904
 20
287.656376028223
 30
0.0
 11
287.259986174904
 21
285.406376028225
 31
0.0
  0
LINE
  5
146
330
1F
100
AcDbEntity
  8
2
  6
Continuous
 62
     7
100
AcDbLine
 10
297.259986174904
 20
285.406376028225
 30
0.0
 11
292.259986174904
 21
285.406376028225
 31
0.0
  0
LINE
  5
147
330
1F
100
AcDbEntity
  8
2
  6
Continuous
 62
     7
100
AcDbLine
 10
292.259986174904
 20
285.406376028225
 30
0.0
 11
292.259986174904
 21
287.656376028223
 31
0.0
  0
LINE
  5
148
330
1F
100
AcDbEntity
  8
2
  6
Continuous
 62
     7
100
AcDbLine
 10
297.259986174904
 20
285.406376028225
 30
0.0
 11
292.259986174904
 21
285.406376028225
 31
0.0
  0
LINE
  5
149
330
1F
100
AcDbEntity
  8
2
  6
Continuous
 62
     7
100
AcDbLine
 10
302.259986174904
 20
285.406376028225
 30
0.0
 11
297.259986174904
 21
285.406376028225
 31
0.0
  0
LINE
  5
14A
330
1F
100
AcDbEntity
  8
2
  6
Continuous
 62
     7
100
AcDbLine
 10
302.259986174904
 20
287.656376028223
 30
0.0
 11
302.259986174904
 21
285.406376028225
 31
0.0
  0
LINE
  5
14B
330
1F
100
AcDbEntity
  8
2
  6
Continuous
 62
     7
100
AcDbLine
 10
342.259986174904
 20
285.406376028225
 30
0.0
 11
337.259986174904
 21
285.406376028225
 31
0.0
  0
LINE
  5
14C
330
1F
100
AcDbEntity
  8
2
  6
Continuous
 62
     7
100
AcDbLine
 10
337.259986174904
 20
285.406376028225
 30
0.0
 11
337.259986174904
 21
287.656376028223
 31
0.0
  0
LINE
  5
14D
330
1F
100
AcDbEntity
  8
2
  6
Continuous
 62
     7
100
AcDbLine
 10
347.259986174904
 20
285.406376028225
 30
0.0
 11
342.259986174904
 21
285.406376028225
 31
0.0
  0
LINE
  5
14E
330
1F
100
AcDbEntity
  8
2
  6
Continuous
 62
     7
100
AcDbLine
 10
347.259986174904
 20
287.656376028223
 30
0.0
 11
347.259986174904
 21
285.406376028225
 31
0.0
  0
LINE
  5
14F
330
1F
100
AcDbEntity
  8
2
  6
Continuous
 62
     7
100
AcDbLine
 10
327.259986174904
 20
285.406376028225
 30
0.0
 11
322.259986174904
 21
285.406376028225
 31
0.0
  0
LINE
  5
150
330
1F
100
AcDbEntity
  8
2
  6
Continuous
 62
     7
100
AcDbLine
 10
322.259986174904
 20
285.406376028225
 30
0.0
 11
322.259986174904
 21
287.656376028223
 31
0.0
  0
LINE
  5
151
330
1F
100
AcDbEntity
  8
2
  6
Continuous
 62
     7
100
AcDbLine
 10
332.259986174904
 20
285.406376028225
 30
0.0
 11
327.259986174904
 21
285.406376028225
 31
0.0
  0
LINE
  5
152
330
1F
100
AcDbEntity
  8
2
  6
Continuous
 62
     7
100
AcDbLine
 10
332.259986174904
 20
287.656376028223
 30
0.0
 11
332.259986174904
 21
285.406376028225
 31
0.0
  0
LINE
  5
153
330
1F
100
AcDbEntity
  8
2
  6
Continuous
 62
     7
100
AcDbLine
 10
312.259986174904
 20
285.406376028225
 30
0.0
 11
307.259986174904
 21
285.406376028225
 31
0.0
  0
LINE
  5
154
330
1F
100
AcDbEntity
  8
1
  6
Continuous
 62
     7
100
AcDbLine
 10
312.259986174904
 20
287.656376028223
 30
0.0
 11
275.509986174905
 21
287.656376028223
 31
0.0
  0
LINE
  5
155
330
1F
100
AcDbEntity
  8
2
  6
Continuous
 62
     7
100
AcDbLine
 10
307.259986174904
 20
285.406376028225
 30
0.0
 11
307.259986174904
 21
287.656376028223
 31
0.0
  0
LINE
  5
156
330
1F
100
AcDbEntity
  8
2
  6
Continuous
 62
     7
100
AcDbLine
 10
352.639532459584
 20
422.156376028225
 30
0.0
 11
271.880439890199
 21
422.156376028225
 31
0.0
  0
LINE
  5
157
330
1F
100
AcDbEntity
  8
2
  6
Continuous
 62
     7
100
AcDbLine
 10
262.259986174892
 20
337.156376028225
 30
0.0
 11
362.259986174891
 21
337.156376028225
 31
0.0
  0
LINE
  5
158
330
1F
100
AcDbEntity
  8
1
  6
Continuous
 62
     7
100
AcDbLine
 10
432.985719412681
 20
287.656376028226
 30
0.0
 11
432.985719412681
 21
285.406376028225
 31
0.0
  0
LINE
  5
159
330
1F
100
AcDbEntity
  8
1
  6
Continuous
 62
     7
100
AcDbLine
 10
432.985719412681
 20
285.406376028225
 30
0.0
 11
442.985719412681
 21
285.406376028225
 31
0.0
  0
LINE
  5
15A
330
1F
100
AcDbEntity
  8
1
  6
Continuous
 62
     7
100
AcDbLine
 10
442.985719412681
 20
285.406376028225
 30
0.0
 11
442.985719412681
 21
287.656376028226
 31
0.0
  0
LINE
  5
15B
330
1F
100
AcDbEntity
  8
1
  6
Continuous
 62
     7
100
AcDbLine
 10
440.557784915419
 20
329.543421562532
 30
0.0
 11
448.235719412681
 21
301.45834537518
 31
0.0
  0
LINE
  5
15C
330
1F
100
AcDbEntity
  8
1
  6
Continuous
 62
     7
100
AcDbLine
 10
362.509986174891
 20
346.906376028225
 30
0.0
 11
362.509986174891
 21
337.406376028225
 31
0.0
  0
LINE
  5
15D
330
1F
100
AcDbEntity
  8
1
  6
Continuous
 62
     7
100
AcDbLine
 10
264.385008687555
 20
414.918122253494
 30
0.0
 11
262.009986174892
 21
346.906376028225
 31
0.0
  0
LINE
  5
15E
330
1F
100
AcDbEntity
  8
1
  6
Continuous
 62
     7
100
AcDbLine
 10
362.509986174891
 20
346.906376028225
 30
0.0
 11
360.134963662227
 21
414.918122253494
 31
0.0
  0
LINE
  5
15F
330
1F
100
AcDbEntity
  8
2
  6
Continuous
 62
     7
100
AcDbLine
 10
350.759986174776
 20
288.656376028225
 30
0.0
 11
273.759986174776
 21
288.656376028226
 31
0.0
  0
LINE
  5
160
330
1F
100
AcDbEntity
  8
2
  6
Continuous
 62
     7
100
AcDbLine
 10
362.509986174776
 20
300.406376028225
 30
0.0
 11
362.509986174891
 21
302.406376028225
 31
0.0
  0
LINE
  5
161
330
1F
100
AcDbEntity
  8
2
  6
Continuous
 62
     7
100
AcDbLine
 10
448.235719412681
 20
288.656376028226
 30
0.0
 11
450.735719412681
 21
288.656376028225
 31
0.0
  0
LINE
  5
162
330
1F
100
AcDbEntity
  8
2
  6
Continuous
 62
     7
100
AcDbLine
 10
448.235719412681
 20
302.356376028225
 30
0.0
 11
448.235719412681
 21
288.656376028226
 31
0.0
  0
LINE
  5
163
330
1F
100
AcDbEntity
  8
2
  6
Continuous
 62
     7
100
AcDbLine
 10
426.485719412681
 20
337.406376028225
 30
0.0
 11
426.485719412681
 21
337.411431158143
 31
0.0
  0
LINE
  5
164
330
1F
100
AcDbEntity
  8
2
  6
Continuous
 62
     7
100
AcDbLine
 10
450.735719412681
 20
288.656376028225
 30
0.0
 11
450.735719412681
 21
422.156376028225
 31
0.0
  0
LINE
  5
165
330
1F
100
AcDbEntity
  8
2
  6
Continuous
 62
     7
100
AcDbLine
 10
448.235719412681
 20
302.406376028225
 30
0.0
 11
440.748613439273
 21
329.793421562532
 31
0.0
  0
LINE
  5
166
330
1F
100
AcDbEntity
  8
2
  6
Continuous
 62
     7
100
AcDbLine
 10
362.509986174891
 20
302.406376028225
 30
0.0
 11
362.509986177952
 21
336.656376028222
 31
0.0
  0
LINE
  5
167
330
1F
100
AcDbEntity
  8
2
  6
Continuous
 62
     7
100
AcDbLine
 10
452.235719412681
 20
422.156376028225
 30
0.0
 11
444.834176141327
 21
422.156376028225
 31
0.0
  0
LINE
  5
168
330
1F
100
AcDbEntity
  8
2
  6
Continuous
 62
     7
100
AcDbLine
 10
426.485719412681
 20
349.406376028225
 30
0.0
 11
426.485719412681
 21
346.906376028225
 31
0.0
  0
LINE
  5
169
330
1F
100
AcDbEntity
  8
2
  6
Continuous
 62
     7
100
AcDbLine
 10
262.009986174892
 20
346.906376028225
 30
0.0
 11
262.009986174868
 21
337.156376028225
 31
0.0
  0
LINE
  5
16A
330
1F
100
AcDbEntity
  8
2
  6
Continuous
 62
     7
100
AcDbLine
 10
426.735719412681
 20
337.156376028225
 30
0.0
 11
431.102578458516
 21
337.156376028225
 31
0.0
  0
LINE
  5
16B
330
1F
100
AcDbEntity
  8
2
  6
Continuous
 62
     7
100
AcDbLine
 10
317.259986174904
 20
285.406376028225
 30
0.0
 11
312.259986174904
 21
285.406376028225
 31
0.0
  0
LINE
  5
16C
330
1F
100
AcDbEntity
  8
2
  6
Continuous
 62
     7
100
AcDbLine
 10
452.235719412681
 20
303.156376028225
 30
0.0
 11
452.235719412681
 21
298.156376028225
 31
0.0
  0
LINE
  5
16D
330
1F
100
AcDbEntity
  8
2
  6
Continuous
 62
     7
100
AcDbLine
 10
452.235719412681
 20
312.656376028225
 30
0.0
 11
452.235719412681
 21
308.656376028225
 31
0.0
  0
LINE
  5
16E
330
1F
100
AcDbEntity
  8
2
  6
Continuous
 62
     7
100
AcDbLine
 10
452.235719412681
 20
422.156376028225
 30
0.0
 11
452.235719412681
 21
395.906376028225
 31
0.0
  0
LINE
  5
16F
330
1F
100
AcDbEntity
  8
2
  6
Continuous
 62
     7
100
AcDbLine
 10
452.235719412681
 20
298.156376028225
 30
0.0
 11
450.735719412681
 21
298.156376028225
 31
0.0
  0
LINE
  5
170
330
1F
100
AcDbEntity
  8
2
  6
Continuous
 62
     7
100
AcDbLine
 10
450.735719412681
 20
303.156376028225
 30
0.0
 11
452.235719412681
 21
303.156376028225
 31
0.0
  0
LINE
  5
171
330
1F
100
AcDbEntity
  8
2
  6
Continuous
 62
     7
100
AcDbLine
 10
452.235719412681
 20
308.656376028225
 30
0.0
 11
450.735719412681
 21
308.656376028225
 31
0.0
  0
LINE
  5
172
330
1F
100
AcDbEntity
  8
2
  6
Continuous
 62
     7
100
AcDbLine
 10
450.735719412681
 20
312.656376028225
 30
0.0
 11
452.235719412681
 21
312.656376028225
 31
0.0
  0
LINE
  5
173
330
1F
100
AcDbEntity
  8
2
  6
Continuous
 62
     7
100
AcDbLine
 10
452.235719412681
 20
395.906376028225
 30
0.0
 11
450.735719412681
 21
395.906376028225
 31
0.0
  0
LINE
  5
174
330
1F
100
AcDbEntity
  8
1
  6
Continuous
 62
     7
100
AcDbLine
 10
349.009986174902
 20
287.656376028223
 30
0.0
 11
312.259986174904
 21
287.656376028223
 31
0.0
  0
LINE
  5
175
330
1F
100
AcDbEntity
  8
2
  6
Continuous
 62
     7
100
AcDbLine
 10
426.485719412681
 20
336.656376028225
 30
0.0
 11
426.485719412681
 21
297.906376028225
 31
0.0
  0
LINE
  5
176
330
1F
100
AcDbEntity
  8
2
  6
Continuous
 62
     7
100
AcDbLine
 10
448.235719412681
 20
288.656376028226
 30
0.0
 11
448.235719412681
 21
288.906376028225
 31
0.0
  0
LINE
  5
177
330
1F
100
AcDbEntity
  8
2
  6
Continuous
 62
     7
100
AcDbLine
 10
312.259986174904
 20
336.906376028222
 30
0.0
 11
362.259986177974
 21
336.906376028222
 31
0.0
  0
LINE
  5
178
330
1F
100
AcDbEntity
  8
2
  6
Continuous
 62
     7
100
AcDbLine
 10
362.259986177974
 20
336.906376028222
 30
0.0
 11
362.509986177952
 21
336.656376028222
 31
0.0
  0
LINE
  5
179
330
1F
100
AcDbEntity
  8
2
  6
Continuous
 62
     7
100
AcDbLine
 10
427.235719412681
 20
337.156376028225
 30
0.0
 11
427.235719412681
 21
336.906376028225
 31
0.0
  0
LINE
  5
17A
330
1F
100
AcDbEntity
  8
2
  6
Continuous
 62
     7
100
AcDbLine
 10
361.759986174903
 20
337.156376028225
 30
0.0
 11
361.759986174903
 21
336.906376028222
 31
0.0
  0
LINE
  5
17B
330
1F
100
AcDbEntity
  8
1
  6
Continuous
 62
     7
100
AcDbLine
 10
362.509986177952
 20
336.656376028222
 30
0.0
 11
312.259986174904
 21
336.656376028222
 31
0.0
  0
LINE
  5
17C
330
1F
100
AcDbEntity
  8
2
  6
Continuous
 62
     7
100
AcDbLine
 10
426.735719412681
 20
336.906376028225
 30
0.0
 11
426.485719412681
 21
336.656376028225
 31
0.0
  0
LINE
  5
17D
330
1F
100
AcDbEntity
  8
2
  6
Continuous
 62
     7
100
AcDbLine
 10
430.911749934662
 20
336.906376028225
 30
0.0
 11
426.735719412681
 21
336.906376028225
 31
0.0
  0
LINE
  5
17E
330
1F
100
AcDbEntity
  8
1
  6
Continuous
 62
     7
100
AcDbLine
 10
430.911749934662
 20
336.656376028225
 30
0.0
 11
426.485719412681
 21
336.656376028225
 31
0.0
  0
LINE
  5
17F
330
1F
100
AcDbEntity
  8
2
  6
Continuous
 62
     7
100
AcDbLine
 10
317.259986174904
 20
287.656376028223
 30
0.0
 11
317.259986174904
 21
285.406376028225
 31
0.0
  0
LINE
  5
180
330
1F
100
AcDbEntity
  8
2
  6
Continuous
 62
     7
100
AcDbLine
 10
448.235719412681
 20
288.656376028226
 30
0.0
 11
435.735719412681
 21
288.656376028226
 31
0.0
  0
LINE
  5
181
330
1F
100
AcDbEntity
  8
1
  6
Continuous
 62
     7
100
AcDbLine
 10
430.485719412681
 20
289.656376028226
 30
0.0
 11
430.485719412681
 21
290.290602922362
 31
0.0
  0
LINE
  5
182
330
1F
100
AcDbEntity
  8
2
  6
Continuous
 62
     7
100
AcDbLine
 10
448.235719412681
 20
287.656376028226
 30
0.0
 11
448.235719412681
 21
288.656376028226
 31
0.0
  0
LINE
  5
183
330
1F
100
AcDbEntity
  8
1
  6
Continuous
 62
     7
100
AcDbLine
 10
448.235719412681
 20
287.656376028226
 30
0.0
 11
432.485719412681
 21
287.656376028226
 31
0.0
  0
LINE
  5
184
330
1F
100
AcDbEntity
  8
1
  6
Continuous
 62
     7
100
AcDbLine
 10
440.3166340409
 20
329.477495424175
 30
0.0
 11
448.235719412681
 21
300.510314722135
 31
0.0
  0
LINE
  5
185
330
1F
100
AcDbEntity
  8
1
  6
Continuous
 62
     7
100
AcDbLine
 10
426.485719412681
 20
337.411431158143
 30
0.0
 11
426.485719412681
 21
337.156376028225
 31
0.0
  0
LINE
  5
186
330
1F
100
AcDbEntity
  8
2
  6
Continuous
 62
     7
100
AcDbLine
 10
426.485719412681
 20
337.411431158143
 30
0.0
 11
426.485719412681
 21
346.906376028225
 31
0.0
  0
LINE
  5
187
330
1F
100
AcDbEntity
  8
1
  6
Continuous
 62
     7
100
AcDbLine
 10
426.485719412681
 20
337.156376028225
 30
0.0
 11
426.735719412681
 21
337.156376028225
 31
0.0
  0
LINE
  5
188
330
1F
100
AcDbEntity
  8
1
  6
Continuous
 62
     7
100
AcDbLine
 10
362.509986174891
 20
337.406376028225
 30
0.0
 11
362.509986174891
 21
337.156376028225
 31
0.0
  0
LINE
  5
189
330
1F
100
AcDbEntity
  8
1
  6
Continuous
 62
     7
100
AcDbLine
 10
362.509986174891
 20
337.156376028225
 30
0.0
 11
362.259986174891
 21
337.156376028225
 31
0.0
  0
LINE
  5
18A
330
1F
100
AcDbEntity
  8
1
  6
Continuous
 62
     7
100
AcDbLine
 10
262.259986174892
 20
337.156376028225
 30
0.0
 11
262.009986174868
 21
337.156376028225
 31
0.0
  0
LINE
  5
18B
330
1F
100
AcDbEntity
  8
1
  6
Continuous
 62
     7
100
AcDbLine
 10
314.759986174904
 20
232.782139490376
 30
0.0
 11
314.759986174904
 21
233.532139490376
 31
0.0
  0
LINE
  5
18C
330
1F
100
AcDbEntity
  8
1
  6
Continuous
 62
     7
100
AcDbLine
 10
316.884986174904
 20
234.782139490376
 30
0.0
 11
316.884986174904
 21
237.032139490376
 31
0.0
  0
LINE
  5
18D
330
1F
100
AcDbEntity
  8
1
  6
Continuous
 62
     7
100
AcDbLine
 10
307.259986174904
 20
233.532139490376
 30
0.0
 11
317.259986174904
 21
233.532139490376
 31
0.0
  0
LINE
  5
18E
330
1F
100
AcDbEntity
  8
1
  6
Continuous
 62
     7
100
AcDbLine
 10
316.634986174904
 20
237.032139490376
 30
0.0
 11
316.634986174904
 21
234.782139490376
 31
0.0
  0
LINE
  5
18F
330
1F
100
AcDbEntity
  8
1
  6
Continuous
 62
     7
100
AcDbLine
 10
315.913298338417
 20
234.782139490376
 30
0.0
 11
315.913298338417
 21
237.032139490376
 31
0.0
  0
LINE
  5
190
330
1F
100
AcDbEntity
  8
1
  6
Continuous
 62
     7
100
AcDbLine
 10
315.356674011391
 20
237.032139490376
 30
0.0
 11
315.356674011391
 21
234.782139490376
 31
0.0
  0
LINE
  5
191
330
1F
100
AcDbEntity
  8
1
  6
Continuous
 62
     7
100
AcDbLine
 10
314.634986174904
 20
234.782139490376
 30
0.0
 11
314.634986174904
 21
237.032139490376
 31
0.0
  0
LINE
  5
192
330
1F
100
AcDbEntity
  8
1
  6
Continuous
 62
     7
100
AcDbLine
 10
314.384986174904
 20
237.032139490376
 30
0.0
 11
314.384986174904
 21
234.782139490376
 31
0.0
  0
LINE
  5
193
330
1F
100
AcDbEntity
  8
1
  6
Continuous
 62
     7
100
AcDbLine
 10
313.663298338417
 20
234.782139490376
 30
0.0
 11
313.663298338417
 21
237.032139490376
 31
0.0
  0
LINE
  5
194
330
1F
100
AcDbEntity
  8
1
  6
Continuous
 62
     7
100
AcDbLine
 10
313.106674011391
 20
237.032139490376
 30
0.0
 11
313.106674011391
 21
234.782139490376
 31
0.0
  0
LINE
  5
195
330
1F
100
AcDbEntity
  8
1
  6
Continuous
 62
     7
100
AcDbLine
 10
312.384986174904
 20
234.782139490376
 30
0.0
 11
312.384986174904
 21
237.032139490376
 31
0.0
  0
LINE
  5
196
330
1F
100
AcDbEntity
  8
1
  6
Continuous
 62
     7
100
AcDbLine
 10
312.134986174904
 20
237.032139490376
 30
0.0
 11
312.134986174904
 21
234.782139490376
 31
0.0
  0
LINE
  5
197
330
1F
100
AcDbEntity
  8
1
  6
Continuous
 62
     7
100
AcDbLine
 10
317.259986174904
 20
234.782139490376
 30
0.0
 11
307.259986174904
 21
234.782139490376
 31
0.0
  0
LINE
  5
198
330
1F
100
AcDbEntity
  8
1
  6
Continuous
 62
     7
100
AcDbLine
 10
307.634986174904
 20
237.032139490376
 30
0.0
 11
307.634986174904
 21
234.782139490376
 31
0.0
  0
LINE
  5
199
330
1F
100
AcDbEntity
  8
1
  6
Continuous
 62
     7
100
AcDbLine
 10
307.884986174904
 20
234.782139490376
 30
0.0
 11
307.884986174904
 21
237.032139490376
 31
0.0
  0
LINE
  5
19A
330
1F
100
AcDbEntity
  8
1
  6
Continuous
 62
     7
100
AcDbLine
 10
309.759986174904
 20
232.782139490376
 30
0.0
 11
309.759986174904
 21
233.532139490376
 31
0.0
  0
LINE
  5
19B
330
1F
100
AcDbEntity
  8
1
  6
Continuous
 62
     7
100
AcDbLine
 10
311.413298338417
 20
234.782139490376
 30
0.0
 11
311.413298338417
 21
237.032139490376
 31
0.0
  0
LINE
  5
19C
330
1F
100
AcDbEntity
  8
1
  6
Continuous
 62
     7
100
AcDbLine
 10
310.856674011391
 20
237.032139490376
 30
0.0
 11
310.856674011391
 21
234.782139490376
 31
0.0
  0
LINE
  5
19D
330
1F
100
AcDbEntity
  8
1
  6
Continuous
 62
     7
100
AcDbLine
 10
310.134986174904
 20
234.782139490376
 30
0.0
 11
310.134986174904
 21
237.032139490376
 31
0.0
  0
LINE
  5
19E
330
1F
100
AcDbEntity
  8
1
  6
Continuous
 62
     7
100
AcDbLine
 10
309.884986174904
 20
237.032139490376
 30
0.0
 11
309.884986174904
 21
234.782139490376
 31
0.0
  0
LINE
  5
19F
330
1F
100
AcDbEntity
  8
1
  6
Continuous
 62
     7
100
AcDbLine
 10
309.163298338417
 20
234.782139490376
 30
0.0
 11
309.163298338417
 21
237.032139490376
 31
0.0
  0
LINE
  5
1A0
330
1F
100
AcDbEntity
  8
1
  6
Continuous
 62
     7
100
AcDbLine
 10
308.606674011391
 20
237.032139490376
 30
0.0
 11
308.606674011391
 21
234.782139490376
 31
0.0
  0
LINE
  5
1A1
330
1F
100
AcDbEntity
  8
1
  6
Continuous
 62
     7
100
AcDbLine
 10
307.259986174904
 20
237.032139490376
 30
0.0
 11
317.259986174904
 21
237.032139490376
 31
0.0
  0
LINE
  5
1A2
330
1F
100
AcDbEntity
  8
1
  6
Continuous
 62
     7
100
AcDbLine
 10
307.259986174904
 20
243.032139490376
 30
0.0
 11
307.259986174904
 21
232.782139490376
 31
0.0
  0
LINE
  5
1A3
330
1F
100
AcDbEntity
  8
1
  6
Continuous
 62
     7
100
AcDbLine
 10
317.259986174904
 20
232.782139490376
 30
0.0
 11
317.259986174904
 21
243.032139490376
 31
0.0
  0
LINE
  5
1A4
330
1F
100
AcDbEntity
  8
1
  6
Continuous
 62
     7
100
AcDbLine
 10
279.759986174904
 20
233.532139490376
 30
0.0
 11
279.759986174904
 21
232.782139490376
 31
0.0
  0
LINE
  5
1A5
330
1F
100
AcDbEntity
  8
1
  6
Continuous
 62
     7
100
AcDbLine
 10
277.634986174904
 20
237.032139490376
 30
0.0
 11
277.634986174904
 21
234.782139490376
 31
0.0
  0
LINE
  5
1A6
330
1F
100
AcDbEntity
  8
1
  6
Continuous
 62
     7
100
AcDbLine
 10
277.259986174904
 20
233.532139490376
 30
0.0
 11
287.259986174904
 21
233.532139490376
 31
0.0
  0
LINE
  5
1A7
330
1F
100
AcDbEntity
  8
1
  6
Continuous
 62
     7
100
AcDbLine
 10
277.884986174904
 20
234.782139490376
 30
0.0
 11
277.884986174904
 21
237.032139490376
 31
0.0
  0
LINE
  5
1A8
330
1F
100
AcDbEntity
  8
1
  6
Continuous
 62
     7
100
AcDbLine
 10
278.606674011391
 20
237.032139490376
 30
0.0
 11
278.606674011391
 21
234.782139490376
 31
0.0
  0
LINE
  5
1A9
330
1F
100
AcDbEntity
  8
1
  6
Continuous
 62
     7
100
AcDbLine
 10
279.163298338417
 20
234.782139490376
 30
0.0
 11
279.163298338417
 21
237.032139490376
 31
0.0
  0
LINE
  5
1AA
330
1F
100
AcDbEntity
  8
1
  6
Continuous
 62
     7
100
AcDbLine
 10
279.884986174904
 20
237.032139490376
 30
0.0
 11
279.884986174904
 21
234.782139490376
 31
0.0
  0
LINE
  5
1AB
330
1F
100
AcDbEntity
  8
1
  6
Continuous
 62
     7
100
AcDbLine
 10
280.134986174904
 20
234.782139490376
 30
0.0
 11
280.134986174904
 21
237.032139490376
 31
0.0
  0
LINE
  5
1AC
330
1F
100
AcDbEntity
  8
1
  6
Continuous
 62
     7
100
AcDbLine
 10
280.856674011391
 20
237.032139490376
 30
0.0
 11
280.856674011391
 21
234.782139490376
 31
0.0
  0
LINE
  5
1AD
330
1F
100
AcDbEntity
  8
1
  6
Continuous
 62
     7
100
AcDbLine
 10
281.413298338417
 20
234.782139490376
 30
0.0
 11
281.413298338417
 21
237.032139490376
 31
0.0
  0
LINE
  5
1AE
330
1F
100
AcDbEntity
  8
1
  6
Continuous
 62
     7
100
AcDbLine
 10
282.134986174904
 20
237.032139490376
 30
0.0
 11
282.134986174904
 21
234.782139490376
 31
0.0
  0
LINE
  5
1AF
330
1F
100
AcDbEntity
  8
1
  6
Continuous
 62
     7
100
AcDbLine
 10
282.384986174904
 20
234.782139490376
 30
0.0
 11
282.384986174904
 21
237.032139490376
 31
0.0
  0
LINE
  5
1B0
330
1F
100
AcDbEntity
  8
1
  6
Continuous
 62
     7
100
AcDbLine
 10
287.259986174904
 20
234.782139490376
 30
0.0
 11
277.259986174904
 21
234.782139490376
 31
0.0
  0
LINE
  5
1B1
330
1F
100
AcDbEntity
  8
1
  6
Continuous
 62
     7
100
AcDbLine
 10
286.884986174904
 20
234.782139490376
 30
0.0
 11
286.884986174904
 21
237.032139490376
 31
0.0
  0
LINE
  5
1B2
330
1F
100
AcDbEntity
  8
1
  6
Continuous
 62
     7
100
AcDbLine
 10
286.634986174904
 20
237.032139490376
 30
0.0
 11
286.634986174904
 21
234.782139490376
 31
0.0
  0
LINE
  5
1B3
330
1F
100
AcDbEntity
  8
1
  6
Continuous
 62
     7
100
AcDbLine
 10
284.759986174904
 20
233.532139490376
 30
0.0
 11
284.759986174904
 21
232.782139490376
 31
0.0
  0
LINE
  5
1B4
330
1F
100
AcDbEntity
  8
1
  6
Continuous
 62
     7
100
AcDbLine
 10
283.106674011391
 20
237.032139490376
 30
0.0
 11
283.106674011391
 21
234.782139490376
 31
0.0
  0
LINE
  5
1B5
330
1F
100
AcDbEntity
  8
1
  6
Continuous
 62
     7
100
AcDbLine
 10
283.663298338417
 20
234.782139490376
 30
0.0
 11
283.663298338417
 21
237.032139490376
 31
0.0
  0
LINE
  5
1B6
330
1F
100
AcDbEntity
  8
1
  6
Continuous
 62
     7
100
AcDbLine
 10
284.384986174904
 20
237.032139490376
 30
0.0
 11
284.384986174904
 21
234.782139490376
 31
0.0
  0
LINE
  5
1B7
330
1F
100
AcDbEntity
  8
1
  6
Continuous
 62
     7
100
AcDbLine
 10
284.634986174904
 20
234.782139490376
 30
0.0
 11
284.634986174904
 21
237.032139490376
 31
0.0
  0
LINE
  5
1B8
330
1F
100
AcDbEntity
  8
1
  6
Continuous
 62
     7
100
AcDbLine
 10
285.356674011391
 20
237.032139490376
 30
0.0
 11
285.356674011391
 21
234.782139490376
 31
0.0
  0
LINE
  5
1B9
330
1F
100
AcDbEntity
  8
1
  6
Continuous
 62
     7
100
AcDbLine
 10
285.913298338417
 20
234.782139490376
 30
0.0
 11
285.913298338417
 21
237.032139490376
 31
0.0
  0
LINE
  5
1BA
330
1F
100
AcDbEntity
  8
1
  6
Continuous
 62
     7
100
AcDbLine
 10
277.259986174904
 20
237.032139490376
 30
0.0
 11
287.259986174904
 21
237.032139490376
 31
0.0
  0
LINE
  5
1BB
330
1F
100
AcDbEntity
  8
1
  6
Continuous
 62
     7
100
AcDbLine
 10
287.259986174904
 20
232.782139490376
 30
0.0
 11
287.259986174904
 21
243.032139490376
 31
0.0
  0
LINE
  5
1BC
330
1F
100
AcDbEntity
  8
1
  6
Continuous
 62
     7
100
AcDbLine
 10
277.259986174904
 20
243.032139490376
 30
0.0
 11
277.259986174904
 21
232.782139490376
 31
0.0
  0
LINE
  5
1BD
330
1F
100
AcDbEntity
  8
1
  6
Continuous
 62
     7
100
AcDbLine
 10
292.259986174904
 20
243.032139490376
 30
0.0
 11
292.259986174904
 21
232.782139490376
 31
0.0
  0
LINE
  5
1BE
330
1F
100
AcDbEntity
  8
1
  6
Continuous
 62
     7
100
AcDbLine
 10
302.259986174904
 20
232.782139490376
 30
0.0
 11
302.259986174904
 21
243.032139490376
 31
0.0
  0
LINE
  5
1BF
330
1F
100
AcDbEntity
  8
1
  6
Continuous
 62
     7
100
AcDbLine
 10
292.259986174904
 20
233.532139490376
 30
0.0
 11
302.259986174904
 21
233.532139490376
 31
0.0
  0
LINE
  5
1C0
330
1F
100
AcDbEntity
  8
1
  6
Continuous
 62
     7
100
AcDbLine
 10
274.509986174904
 20
232.782139490376
 30
0.0
 11
274.509986174904
 21
248.282139490376
 31
0.0
  0
LINE
  5
1C1
330
1F
100
AcDbEntity
  8
1
  6
Continuous
 62
     7
100
AcDbLine
 10
277.009986174904
 20
250.782139490376
 30
0.0
 11
312.259986174904
 21
250.782139490376
 31
0.0
  0
LINE
  5
1C2
330
1F
100
AcDbEntity
  8
2
  6
Continuous
 62
     7
100
AcDbLine
 10
362.50998617489
 20
230.282139490376
 30
0.0
 11
362.509986174891
 21
232.782139490376
 31
0.0
  0
LINE
  5
1C3
330
1F
100
AcDbEntity
  8
2
  6
Continuous
 62
     7
100
AcDbLine
 10
362.509986174891
 20
232.782139490376
 30
0.0
 11
262.009986174891
 21
232.782139490376
 31
0.0
  0
LINE
  5
1C4
330
1F
100
AcDbEntity
  8
1
  6
Continuous
 62
     7
100
AcDbLine
 10
344.759986174904
 20
232.782139490376
 30
0.0
 11
344.759986174904
 21
233.532139490376
 31
0.0
  0
LINE
  5
1C5
330
1F
100
AcDbEntity
  8
1
  6
Continuous
 62
     7
100
AcDbLine
 10
346.884986174903
 20
234.782139490376
 30
0.0
 11
346.884986174903
 21
237.032139490376
 31
0.0
  0
LINE
  5
1C6
330
1F
100
AcDbEntity
  8
1
  6
Continuous
 62
     7
100
AcDbLine
 10
337.259986174903
 20
233.532139490376
 30
0.0
 11
347.259986174903
 21
233.532139490376
 31
0.0
  0
LINE
  5
1C7
330
1F
100
AcDbEntity
  8
2
  6
Continuous
 62
     7
100
AcDbLine
 10
273.859986174904
 20
232.782139490376
 30
0.0
 11
350.659986174904
 21
232.782139490376
 31
0.0
  0
LINE
  5
1C8
330
1F
100
AcDbEntity
  8
1
  6
Continuous
 62
     7
100
AcDbLine
 10
346.634986174903
 20
237.032139490376
 30
0.0
 11
346.634986174903
 21
234.782139490376
 31
0.0
  0
LINE
  5
1C9
330
1F
100
AcDbEntity
  8
1
  6
Continuous
 62
     7
100
AcDbLine
 10
345.913298338416
 20
234.782139490376
 30
0.0
 11
345.913298338416
 21
237.032139490376
 31
0.0
  0
LINE
  5
1CA
330
1F
100
AcDbEntity
  8
1
  6
Continuous
 62
     7
100
AcDbLine
 10
345.356674011391
 20
237.032139490376
 30
0.0
 11
345.35667401139
 21
234.782139490376
 31
0.0
  0
LINE
  5
1CB
330
1F
100
AcDbEntity
  8
1
  6
Continuous
 62
     7
100
AcDbLine
 10
344.634986174904
 20
234.782139490376
 30
0.0
 11
344.634986174903
 21
237.032139490376
 31
0.0
  0
LINE
  5
1CC
330
1F
100
AcDbEntity
  8
1
  6
Continuous
 62
     7
100
AcDbLine
 10
344.384986174904
 20
237.032139490376
 30
0.0
 11
344.384986174903
 21
234.782139490376
 31
0.0
  0
LINE
  5
1CD
330
1F
100
AcDbEntity
  8
1
  6
Continuous
 62
     7
100
AcDbLine
 10
343.663298338416
 20
234.782139490376
 30
0.0
 11
343.663298338416
 21
237.032139490376
 31
0.0
  0
LINE
  5
1CE
330
1F
100
AcDbEntity
  8
2
  6
Continuous
 62
     7
100
AcDbLine
 10
262.00998617489
 20
230.282139490376
 30
0.0
 11
279.759986174904
 21
230.282139490376
 31
0.0
  0
LINE
  5
1CF
330
1F
100
AcDbEntity
  8
2
  6
Continuous
 62
     7
100
AcDbLine
 10
312.259986174904
 20
230.282139490376
 30
0.0
 11
312.259986174904
 21
230.782139490376
 31
0.0
  0
LINE
  5
1D0
330
1F
100
AcDbEntity
  8
2
  6
Continuous
 62
     7
100
AcDbLine
 10
362.509986174908
 20
244.149288663764
 30
0.0
 11
362.509986174891
 21
232.782139319716
 31
0.0
  0
LINE
  5
1D1
330
1F
100
AcDbEntity
  8
2
  6
Continuous
 62
     7
100
AcDbLine
 10
262.009986174908
 20
244.149288834424
 30
0.0
 11
262.009986174891
 21
232.782139490376
 31
0.0
  0
LINE
  5
1D2
330
1F
100
AcDbEntity
  8
1
  6
Continuous
 62
     7
100
AcDbLine
 10
343.106674011391
 20
237.032139490376
 30
0.0
 11
343.10667401139
 21
234.782139490376
 31
0.0
  0
LINE
  5
1D3
330
1F
100
AcDbEntity
  8
2
  6
Continuous
 62
     7
100
AcDbLine
 10
262.009986174891
 20
232.782139490376
 30
0.0
 11
262.00998617489
 21
230.282139490376
 31
0.0
  0
LINE
  5
1D4
330
1F
100
AcDbEntity
  8
1
  6
Continuous
 62
     7
100
AcDbLine
 10
342.384986174904
 20
234.782139490376
 30
0.0
 11
342.384986174903
 21
237.032139490376
 31
0.0
  0
LINE
  5
1D5
330
1F
100
AcDbEntity
  8
2
  6
Continuous
 62
     7
100
AcDbLine
 10
435.996057164613
 20
288.656376028226
 30
0.0
 11
438.496057164613
 21
288.656376028225
 31
0.0
  0
LINE
  5
1D6
330
1F
100
AcDbEntity
  8
2
  6
Continuous
 62
     7
100
AcDbLine
 10
275.259986174904
 20
230.782139490376
 30
0.0
 11
349.259986174904
 21
230.782139490376
 31
0.0
  0
LINE
  5
1D7
330
1F
100
AcDbEntity
  8
1
  6
Continuous
 62
     7
100
AcDbLine
 10
342.134986174904
 20
237.032139490376
 30
0.0
 11
342.134986174903
 21
234.782139490376
 31
0.0
  0
LINE
  5
1D8
330
1F
100
AcDbEntity
  8
2
  6
Continuous
 62
     7
100
AcDbLine
 10
274.759986174904
 20
230.282139490376
 30
0.0
 11
275.259986174904
 21
230.782139490376
 31
0.0
  0
LINE
  5
1D9
330
1F
100
AcDbEntity
  8
2
  6
Continuous
 62
     7
100
AcDbLine
 10
344.759986174901
 20
230.282139490376
 30
0.0
 11
362.50998617489
 21
230.282139490376
 31
0.0
  0
LINE
  5
1DA
330
1F
100
AcDbEntity
  8
2
  6
Continuous
 62
     7
100
AcDbLine
 10
326.009973491975
 20
228.782139490376
 30
0.0
 11
326.009973491975
 21
230.282139490376
 31
0.0
  0
LINE
  5
1DB
330
1F
100
AcDbEntity
  8
2
  6
Continuous
 62
     7
100
AcDbLine
 10
284.759986174904
 20
230.282139490376
 30
0.0
 11
339.759986174901
 21
230.282139490376
 31
0.0
  0
LINE
  5
1DC
330
1F
100
AcDbEntity
  8
2
  6
Continuous
 62
     7
100
AcDbLine
 10
304.759986174903
 20
228.782139490376
 30
0.0
 11
304.759986174903
 21
230.282139490376
 31
0.0
  0
LINE
  5
1DD
330
1F
100
AcDbEntity
  8
2
  6
Continuous
 62
     7
100
AcDbLine
 10
279.759986174904
 20
228.782139490376
 30
0.0
 11
284.759986174904
 21
228.782139490376
 31
0.0
  0
LINE
  5
1DE
330
1F
100
AcDbEntity
  8
2
  6
Continuous
 62
     7
100
AcDbLine
 10
339.759986174901
 20
228.782139490376
 30
0.0
 11
344.759986174901
 21
228.782139490376
 31
0.0
  0
LINE
  5
1DF
330
1F
100
AcDbEntity
  8
2
  6
Continuous
 62
     7
100
AcDbLine
 10
339.759986174901
 20
230.782139490376
 30
0.0
 11
339.759986174901
 21
228.782139490376
 31
0.0
  0
LINE
  5
1E0
330
1F
100
AcDbEntity
  8
2
  6
Continuous
 62
     7
100
AcDbLine
 10
344.759986174901
 20
230.782139490376
 30
0.0
 11
344.759986174901
 21
228.782139490376
 31
0.0
  0
LINE
  5
1E1
330
1F
100
AcDbEntity
  8
1
  6
Continuous
 62
     7
100
AcDbLine
 10
347.259986174903
 20
234.782139490376
 30
0.0
 11
337.259986174903
 21
234.782139490376
 31
0.0
  0
LINE
  5
1E2
330
1F
100
AcDbEntity
  8
1
  6
Continuous
 62
     7
100
AcDbLine
 10
337.634986174904
 20
237.032139490376
 30
0.0
 11
337.634986174904
 21
234.782139490376
 31
0.0
  0
LINE
  5
1E3
330
1F
100
AcDbEntity
  8
1
  6
Continuous
 62
     7
100
AcDbLine
 10
337.884986174904
 20
234.782139490376
 30
0.0
 11
337.884986174904
 21
237.032139490376
 31
0.0
  0
LINE
  5
1E4
330
1F
100
AcDbEntity
  8
1
  6
Continuous
 62
     7
100
AcDbLine
 10
339.759986174904
 20
232.782139490376
 30
0.0
 11
339.759986174904
 21
233.532139490376
 31
0.0
  0
LINE
  5
1E5
330
1F
100
AcDbEntity
  8
2
  6
Continuous
 62
     7
100
AcDbLine
 10
319.759986174903
 20
230.282139490376
 30
0.0
 11
319.759986174903
 21
228.782139490376
 31
0.0
  0
LINE
  5
1E6
330
1F
100
AcDbEntity
  8
2
  6
Continuous
 62
     7
100
AcDbLine
 10
298.509986174903
 20
228.782139490376
 30
0.0
 11
298.509986174903
 21
230.282139490376
 31
0.0
  0
LINE
  5
1E7
330
1F
100
AcDbEntity
  8
1
  6
Continuous
 62
     7
100
AcDbLine
 10
341.413298338416
 20
234.782139490376
 30
0.0
 11
341.413298338416
 21
237.032139490376
 31
0.0
  0
LINE
  5
1E8
330
1F
100
AcDbEntity
  8
1
  6
Continuous
 62
     7
100
AcDbLine
 10
340.856674011391
 20
237.032139490376
 30
0.0
 11
340.856674011391
 21
234.782139490376
 31
0.0
  0
LINE
  5
1E9
330
1F
100
AcDbEntity
  8
1
  6
Continuous
 62
     7
100
AcDbLine
 10
340.134986174904
 20
234.782139490376
 30
0.0
 11
340.134986174904
 21
237.032139490376
 31
0.0
  0
LINE
  5
1EA
330
1F
100
AcDbEntity
  8
1
  6
Continuous
 62
     7
100
AcDbLine
 10
339.884986174904
 20
237.032139490376
 30
0.0
 11
339.884986174904
 21
234.782139490376
 31
0.0
  0
LINE
  5
1EB
330
1F
100
AcDbEntity
  8
1
  6
Continuous
 62
     7
100
AcDbLine
 10
339.163298338417
 20
234.782139490376
 30
0.0
 11
339.163298338417
 21
237.032139490376
 31
0.0
  0
LINE
  5
1EC
330
1F
100
AcDbEntity
  8
1
  6
Continuous
 62
     7
100
AcDbLine
 10
338.606674011391
 20
237.032139490376
 30
0.0
 11
338.606674011391
 21
234.782139490376
 31
0.0
  0
LINE
  5
1ED
330
1F
100
AcDbEntity
  8
2
  6
Continuous
 62
     7
100
AcDbLine
 10
319.759973491975
 20
228.782139490376
 30
0.0
 11
326.009973491975
 21
228.782139490376
 31
0.0
  0
LINE
  5
1EE
330
1F
100
AcDbEntity
  8
2
  6
Continuous
 62
     7
100
AcDbLine
 10
279.759986174904
 20
230.782139490376
 30
0.0
 11
279.759986174904
 21
228.782139490376
 31
0.0
  0
LINE
  5
1EF
330
1F
100
AcDbEntity
  8
1
  6
Continuous
 62
     7
100
AcDbLine
 10
337.259986174903
 20
237.032139490376
 30
0.0
 11
347.259986174903
 21
237.032139490376
 31
0.0
  0
LINE
  5
1F0
330
1F
100
AcDbEntity
  8
2
  6
Continuous
 62
     7
100
AcDbLine
 10
304.759986174903
 20
228.782139490376
 30
0.0
 11
298.509986174903
 21
228.782139490376
 31
0.0
  0
LINE
  5
1F1
330
1F
100
AcDbEntity
  8
2
  6
Continuous
 62
     7
100
AcDbLine
 10
284.759986174904
 20
230.782139490376
 30
0.0
 11
284.759986174904
 21
228.782139490376
 31
0.0
  0
LINE
  5
1F2
330
1F
100
AcDbEntity
  8
1
  6
Continuous
 62
     7
100
AcDbLine
 10
337.259986174903
 20
243.032139490376
 30
0.0
 11
337.259986174903
 21
232.782139490376
 31
0.0
  0
LINE
  5
1F3
330
1F
100
AcDbEntity
  8
1
  6
Continuous
 62
     7
100
AcDbLine
 10
312.259986174904
 20
250.782139490376
 30
0.0
 11
347.509986174903
 21
250.782139490376
 31
0.0
  0
LINE
  5
1F4
330
1F
100
AcDbEntity
  8
1
  6
Continuous
 62
     7
100
AcDbLine
 10
350.009986174903
 20
248.282139490376
 30
0.0
 11
350.009986174903
 21
232.782139490376
 31
0.0
  0
LINE
  5
1F5
330
1F
100
AcDbEntity
  8
1
  6
Continuous
 62
     7
100
AcDbLine
 10
347.259986174903
 20
232.782139490376
 30
0.0
 11
347.259986174903
 21
243.032139490376
 31
0.0
  0
LINE
  5
1F6
330
1F
100
AcDbEntity
  8
1
  6
Continuous
 62
     7
100
AcDbLine
 10
332.259986174904
 20
232.782139490376
 30
0.0
 11
332.259986174904
 21
243.032139490376
 31
0.0
  0
LINE
  5
1F7
330
1F
100
AcDbEntity
  8
1
  6
Continuous
 62
     7
100
AcDbLine
 10
322.259986174904
 20
243.032139490376
 30
0.0
 11
322.259986174904
 21
232.782139490376
 31
0.0
  0
LINE
  5
1F8
330
1F
100
AcDbEntity
  8
2
  6
Continuous
 62
     7
100
AcDbLine
 10
349.259986174904
 20
230.782139490376
 30
0.0
 11
349.759986174904
 21
230.282139490376
 31
0.0
  0
LINE
  5
1F9
330
1F
100
AcDbEntity
  8
2
  6
Continuous
 62
     7
100
AcDbLine
 10
362.509986174903
 20
244.149288834424
 30
0.0
 11
362.509986174891
 21
232.782139490376
 31
0.0
  0
LINE
  5
1FA
330
1F
100
AcDbEntity
  8
1
  6
Continuous
 62
     7
100
AcDbLine
 10
322.259986174904
 20
233.532139490376
 30
0.0
 11
332.259986174904
 21
233.532139490376
 31
0.0
  0
LINE
  5
1FB
330
1F
100
AcDbEntity
  8
1
  6
DASHED
 62
     7
100
AcDbLine
 10
545.382405712676
 20
414.089388730117
 30
0.0
 11
545.382405712676
 21
411.120842122292
 31
0.0
  0
LINE
  5
1FC
330
1F
100
AcDbEntity
  8
1
  6
DASHED
 62
     7
100
AcDbLine
 10
539.882405712676
 20
427.656376028225
 30
0.0
 11
544.650172665643
 21
422.888609075258
 31
0.0
  0
LINE
  5
1FD
330
1F
100
AcDbEntity
  8
1
  6
DASHED
 62
     7
100
AcDbLine
 10
534.132405712676
 20
426.656376028225
 30
0.0
 11
534.132405712676
 21
426.217625527824
 31
0.0
  0
LINE
  5
1FE
330
1F
100
AcDbEntity
  8
1
  6
DASHED
 62
     7
100
AcDbLine
 10
531.632405712676
 20
426.656376028225
 30
0.0
 11
531.632405712676
 21
426.217625527824
 31
0.0
  0
LINE
  5
1FF
330
1F
100
AcDbEntity
  8
1
  6
DASHED
 62
     7
100
AcDbLine
 10
521.11463875971
 20
422.888609075258
 30
0.0
 11
527.650172665643
 21
429.424142981191
 31
0.0
  0
LINE
  5
200
330
1F
100
AcDbEntity
  8
1
  6
DASHED
 62
     7
100
AcDbLine
 10
538.11463875971
 20
429.424142981191
 30
0.0
 11
539.882405712676
 21
427.656376028225
 31
0.0
  0
LINE
  5
201
330
1F
100
AcDbEntity
  8
1
  6
DASHED
 62
     7
100
AcDbLine
 10
529.417939618609
 20
430.156376028225
 30
0.0
 11
536.346871806743
 21
430.156376028225
 31
0.0
  0
LINE
  5
202
330
1F
100
AcDbEntity
  8
1
  6
DASHED
 62
     7
100
AcDbLine
 10
545.382405712676
 20
414.089388730117
 30
0.0
 11
545.382405712676
 21
421.120842122292
 31
0.0
  0
LINE
  5
203
330
1F
100
AcDbEntity
  8
1
  6
DASHED
 62
     7
100
AcDbLine
 10
313.509986174574
 20
426.656376028949
 30
0.0
 11
313.509986174574
 21
426.217625528549
 31
0.0
  0
ARC
  5
204
102
{ACAD_REACTORS
330
29D
330
29D
102
}
330
1F
100
AcDbEntity
  8
1
  6
Continuous
 62
     7
100
AcDbCircle
 10
349.512202828554
 20
309.732713628102
 30
0.0
 40
0.3790658770680011
100
AcDbArc
 50
90.0
 51
239.9999999999619
  0
ARC
  5
205
102
{ACAD_REACTORS
330
29D
330
29D
102
}
330
1F
100
AcDbEntity
  8
1
  6
Continuous
 62
     7
100
AcDbCircle
 10
349.512202828554
 20
309.732713628102
 30
0.0
 40
0.0758131754139981
100
AcDbArc
 50
90.0
 51
240.0000000003579
  0
ARC
  5
206
102
{ACAD_REACTORS
330
29E
330
29E
102
}
330
1F
100
AcDbEntity
  8
1
  6
Continuous
 62
     7
100
AcDbCircle
 10
344.712202828554
 20
309.732713628101
 30
0.0
 40
0.3790658770680011
100
AcDbArc
 50
90.0
 51
240.0000000000466
  0
ARC
  5
207
102
{ACAD_REACTORS
330
29E
330
29E
102
}
330
1F
100
AcDbEntity
  8
1
  6
Continuous
 62
     7
100
AcDbCircle
 10
344.712202828554
 20
309.732713628101
 30
0.0
 40
0.0758131754139981
100
AcDbArc
 50
90.0
 51
240.0000000003579
  0
ARC
  5
208
330
1F
100
AcDbEntity
  8
2
  6
Continuous
 62
     7
100
AcDbCircle
 10
312.259984631978
 20
-497.217860509622
 30
0.0
 40
751.7499999999992
100
AcDbArc
 50
86.83458251148004
 51
89.99999988240354
  0
ARC
  5
209
330
1F
100
AcDbEntity
  8
1
  6
DASHED
 62
     7
100
AcDbCircle
 10
312.259986174574
 20
424.656376028949
 30
0.0
 40
2.000000000000286
100
AcDbArc
 50
128.6821874534828
 51
51.31781254651714
  0
ARC
  5
20A
330
1F
100
AcDbEntity
  8
1
  6
DASHED
 62
     7
100
AcDbCircle
 10
308.795520080836
 20
427.656376028225
 30
0.0
 40
2.5
100
AcDbArc
 50
90.0
 51
135.0000000000166
  0
ARC
  5
20B
330
1F
100
AcDbEntity
  8
1
  6
DASHED
 62
     7
100
AcDbCircle
 10
315.72445226897
 20
427.656376028225
 30
0.0
 40
2.500000000000141
100
AcDbArc
 50
44.99999999998434
 51
90.0
  0
ARC
  5
20C
330
1F
100
AcDbEntity
  8
1
  6
DASHED
 62
     7
100
AcDbCircle
 10
322.259986174903
 20
421.120842122292
 30
0.0
 40
2.500000000000431
100
AcDbArc
 50
24.46980053893482
 51
44.99999999998342
  0
ARC
  5
20D
330
1F
100
AcDbEntity
  8
1
  6
DASHED
 62
     7
100
AcDbCircle
 10
302.259986174903
 20
421.120842122292
 30
0.0
 40
2.499999999999498
100
AcDbArc
 50
135.0000000000009
 51
155.5301994610359
  0
ARC
  5
20E
330
1F
100
AcDbEntity
  8
1
  6
Continuous
 62
     7
100
AcDbCircle
 10
496.132405712678
 20
288.656376028223
 30
0.0
 40
1.0
100
AcDbArc
 50
180.0
 51
270.0
  0
ARC
  5
20F
330
1F
100
AcDbEntity
  8
1
  6
Continuous
 62
     7
100
AcDbCircle
 10
569.632405712675
 20
288.656376028223
 30
0.0
 40
1.0
100
AcDbArc
 50
270.0
 51
0.0
  0
ARC
  5
210
330
1F
100
AcDbEntity
  8
1
  6
Continuous
 62
     7
100
AcDbCircle
 10
524.382405712676
 20
397.406376028225
 30
0.0
 40
0.5
100
AcDbArc
 50
270.0
 51
329.9999999999832
  0
ARC
  5
211
330
1F
100
AcDbEntity
  8
1
  6
Continuous
 62
     7
100
AcDbCircle
 10
539.382405712676
 20
397.406376028225
 30
0.0
 40
0.5
100
AcDbArc
 50
270.0
 51
329.9999999999832
  0
ARC
  5
212
330
1F
100
AcDbEntity
  8
1
  6
Continuous
 62
     7
100
AcDbCircle
 10
520.632405712676
 20
405.656376028225
 30
0.0
 40
0.5
100
AcDbArc
 50
180.0
 51
240.0000000001466
  0
ARC
  5
213
330
1F
100
AcDbEntity
  8
1
  6
Continuous
 62
     7
100
AcDbCircle
 10
545.132405712676
 20
403.656376028225
 30
0.0
 40
0.5
100
AcDbArc
 50
0.0
 51
59.99999999998644
  0
ARC
  5
214
330
1F
100
AcDbEntity
  8
1
  6
Continuous
 62
     7
100
AcDbCircle
 10
540.382405712676
 20
414.656376028225
 30
0.0
 40
2.5
100
AcDbArc
 50
0.0
 51
90.0
  0
ARC
  5
215
330
1F
100
AcDbEntity
  8
1
  6
Continuous
 62
     7
100
AcDbCircle
 10
525.382405712676
 20
414.656376028225
 30
0.0
 40
2.5
100
AcDbArc
 50
90.0
 51
180.0
  0
ARC
  5
216
330
1F
100
AcDbEntity
  8
1
  6
Continuous
 62
     7
100
AcDbCircle
 10
532.882405712676
 20
416.656376028225
 30
0.0
 40
1.25
100
AcDbArc
 50
0.0
 51
180.0
  0
ARC
  5
217
330
1F
100
AcDbEntity
  8
1
  6
Continuous
 62
     7
100
AcDbCircle
 10
532.882405712676
 20
414.656376028225
 30
0.0
 40
1.999999999999532
100
AcDbArc
 50
128.6821874535001
 51
51.31781254649983
  0
ARC
  5
218
330
1F
100
AcDbEntity
  8
1
  6
Continuous
 62
     7
100
AcDbCircle
 10
522.882405712676
 20
411.120842122292
 30
0.0
 40
2.499999999999457
100
AcDbArc
 50
135.0
 51
180.0
  0
ARC
  5
219
330
1F
100
AcDbEntity
  8
1
  6
Continuous
 62
     7
100
AcDbCircle
 10
542.882405712676
 20
411.120842122292
 30
0.0
 40
2.5
100
AcDbArc
 50
0.0
 51
44.99999999998342
  0
ARC
  5
21A
330
1F
100
AcDbEntity
  8
1
  6
Continuous
 62
     7
100
AcDbCircle
 10
536.346871806743
 20
417.656376028225
 30
0.0
 40
2.500000000000181
100
AcDbArc
 50
44.99999999998342
 51
90.0
  0
ARC
  5
21B
330
1F
100
AcDbEntity
  8
1
  6
Continuous
 62
     7
100
AcDbCircle
 10
529.417939618609
 20
417.656376028225
 30
0.0
 40
2.5
100
AcDbArc
 50
90.0
 51
135.0000000000166
  0
ARC
  5
21C
330
1F
100
AcDbEntity
  8
1
  6
Continuous
 62
     7
100
AcDbCircle
 10
542.882405712676
 20
399.656376028225
 30
0.0
 40
2.5
100
AcDbArc
 50
270.0
 51
0.0
  0
ARC
  5
21D
330
1F
100
AcDbEntity
  8
1
  6
Continuous
 62
     7
100
AcDbCircle
 10
522.882405712676
 20
399.656376028225
 30
0.0
 40
2.5
100
AcDbArc
 50
180.0
 51
270.0
  0
ARC
  5
21E
330
1F
100
AcDbEntity
  8
1
  6
Continuous
 62
     7
100
AcDbCircle
 10
542.882405712676
 20
401.406376028225
 30
0.0
 40
2.750000000000011
100
AcDbArc
 50
335.3800226713423
 51
0.0
  0
ARC
  5
21F
330
1F
100
AcDbEntity
  8
1
  6
Continuous
 62
     7
100
AcDbCircle
 10
522.882405712676
 20
399.656376028225
 30
0.0
 40
2.75
100
AcDbArc
 50
180.0
 51
270.0
  0
ARC
  5
220
330
1F
100
AcDbEntity
  8
1
  6
Continuous
 62
     7
100
AcDbCircle
 10
542.882405712676
 20
399.656376028225
 30
0.0
 40
2.75
100
AcDbArc
 50
270.0
 51
0.0
  0
ARC
  5
221
330
1F
100
AcDbEntity
  8
1
  6
Continuous
 62
     7
100
AcDbCircle
 10
522.882405712676
 20
399.656376028225
 30
0.0
 40
3.75
100
AcDbArc
 50
180.0
 51
270.0
  0
ARC
  5
222
330
1F
100
AcDbEntity
  8
1
  6
Continuous
 62
     7
100
AcDbCircle
 10
522.882405712676
 20
399.656376028225
 30
0.0
 40
3.75
100
AcDbArc
 50
180.0
 51
270.0
  0
ARC
  5
223
330
1F
100
AcDbEntity
  8
1
  6
Continuous
 62
     7
100
AcDbCircle
 10
542.882405712676
 20
399.656376028225
 30
0.0
 40
3.75
100
AcDbArc
 50
270.0
 51
0.0
  0
ARC
  5
224
330
1F
100
AcDbEntity
  8
1
  6
Continuous
 62
     7
100
AcDbCircle
 10
544.132405712676
 20
419.156376028225
 30
0.0
 40
1.5
100
AcDbArc
 50
0.0
 51
90.0
  0
ARC
  5
225
330
1F
100
AcDbEntity
  8
1
  6
Continuous
 62
     7
100
AcDbCircle
 10
521.632405712676
 20
419.156376028225
 30
0.0
 40
1.5
100
AcDbArc
 50
90.0
 51
180.0
  0
ARC
  5
226
330
1F
100
AcDbEntity
  8
1
  6
Continuous
 62
     7
100
AcDbCircle
 10
524.382405712676
 20
420.156376028225
 30
0.0
 40
0.5
100
AcDbArc
 50
0.0
 51
90.0
  0
ARC
  5
227
330
1F
100
AcDbEntity
  8
1
  6
Continuous
 62
     7
100
AcDbCircle
 10
524.382405712676
 20
417.484803152971
 30
0.0
 40
0.4999999999994453
100
AcDbArc
 50
289.4712206346744
 51
0.0
  0
ARC
  5
228
330
1F
100
AcDbEntity
  8
1
  6
Continuous
 62
     7
100
AcDbCircle
 10
522.55397858793
 20
415.656376028225
 30
0.0
 40
0.5
100
AcDbArc
 50
270.0
 51
340.5287793653256
  0
ARC
  5
229
330
1F
100
AcDbEntity
  8
1
  6
Continuous
 62
     7
100
AcDbCircle
 10
520.632405712676
 20
413.656376028225
 30
0.0
 40
0.5
100
AcDbArc
 50
90.0
 51
180.0
  0
ARC
  5
22A
330
1F
100
AcDbEntity
  8
1
  6
Continuous
 62
     7
100
AcDbCircle
 10
520.632405712676
 20
415.656376028225
 30
0.0
 40
0.5
100
AcDbArc
 50
180.0
 51
270.0
  0
ARC
  5
22B
330
1F
100
AcDbEntity
  8
1
  6
Continuous
 62
     7
100
AcDbCircle
 10
526.382405712676
 20
420.156376028225
 30
0.0
 40
0.5
100
AcDbArc
 50
90.0
 51
180.0
  0
ARC
  5
22C
330
1F
100
AcDbEntity
  8
1
  6
Continuous
 62
     7
100
AcDbCircle
 10
541.382405712676
 20
420.156376028225
 30
0.0
 40
0.5
100
AcDbArc
 50
90.0
 51
180.0
  0
ARC
  5
22D
330
1F
100
AcDbEntity
  8
1
  6
Continuous
 62
     7
100
AcDbCircle
 10
541.382405712676
 20
417.484803152971
 30
0.0
 40
0.5
100
AcDbArc
 50
180.0
 51
250.5287793654753
  0
ARC
  5
22E
330
1F
100
AcDbEntity
  8
1
  6
Continuous
 62
     7
100
AcDbCircle
 10
543.210832837422
 20
415.656376028225
 30
0.0
 40
0.4999999999994453
100
AcDbArc
 50
199.4712206346744
 51
270.0
  0
ARC
  5
22F
330
1F
100
AcDbEntity
  8
1
  6
Continuous
 62
     7
100
AcDbCircle
 10
545.132405712676
 20
413.656376028225
 30
0.0
 40
0.5
100
AcDbArc
 50
0.0
 51
90.0
  0
ARC
  5
230
330
1F
100
AcDbEntity
  8
1
  6
Continuous
 62
     7
100
AcDbCircle
 10
545.132405712676
 20
415.656376028225
 30
0.0
 40
0.5
100
AcDbArc
 50
270.0
 51
0.0
  0
ARC
  5
231
330
1F
100
AcDbEntity
  8
1
  6
Continuous
 62
     7
100
AcDbCircle
 10
539.382405712676
 20
420.156376028225
 30
0.0
 40
0.5
100
AcDbArc
 50
0.0
 51
90.0
  0
ARC
  5
232
330
1F
100
AcDbEntity
  8
1
  6
Continuous
 62
     7
100
AcDbCircle
 10
520.632405712676
 20
403.656376028225
 30
0.0
 40
0.4999999999997949
100
AcDbArc
 50
120.0000000000136
 51
180.0
  0
ARC
  5
233
330
1F
100
AcDbEntity
  8
1
  6
Continuous
 62
     7
100
AcDbCircle
 10
526.382405712676
 20
397.406376028225
 30
0.0
 40
0.4999999999998441
100
AcDbArc
 50
210.0000000000103
 51
270.0
  0
ARC
  5
234
330
1F
100
AcDbEntity
  8
1
  6
Continuous
 62
     7
100
AcDbCircle
 10
545.132405712676
 20
405.656376028225
 30
0.0
 40
0.500000000000681
100
AcDbArc
 50
299.9999999999549
 51
0.0
  0
ARC
  5
235
330
1F
100
AcDbEntity
  8
1
  6
Continuous
 62
     7
100
AcDbCircle
 10
541.382405712676
 20
397.406376028225
 30
0.0
 40
0.4999999999998441
100
AcDbArc
 50
210.0000000000103
 51
270.0
  0
ARC
  5
236
330
1F
100
AcDbEntity
  8
1
  6
Continuous
 62
     7
100
AcDbCircle
 10
571.382405712574
 20
300.906376028225
 30
0.0
 40
10.24999999999898
100
AcDbArc
 50
270.0
 51
0.0
  0
ARC
  5
237
330
1F
100
AcDbEntity
  8
1
  6
Continuous
 62
     7
100
AcDbCircle
 10
494.382405712575
 20
300.906376028225
 30
0.0
 40
10.25
100
AcDbArc
 50
180.0
 51
270.0
  0
ARC
  5
238
330
1F
100
AcDbEntity
  8
1
  6
Continuous
 62
     7
100
AcDbCircle
 10
494.382405712575
 20
300.406376028225
 30
0.0
 40
10.25
100
AcDbArc
 50
180.0
 51
270.0
  0
ARC
  5
239
330
1F
100
AcDbEntity
  8
1
  6
Continuous
 62
     7
100
AcDbCircle
 10
571.382405712574
 20
300.406376028225
 30
0.0
 40
10.25
100
AcDbArc
 50
270.0
 51
0.00000000002796
  0
ARC
  5
23A
330
1F
100
AcDbEntity
  8
1
  6
Continuous
 62
     7
100
AcDbCircle
 10
573.26195199736
 20
414.656376028225
 30
0.0
 40
7.499999999999767
100
AcDbArc
 50
2.00000000000197
 51
90.0
  0
ARC
  5
23B
330
1F
100
AcDbEntity
  8
1
  6
Continuous
 62
     7
100
AcDbCircle
 10
571.382405712574
 20
300.406376028225
 30
0.0
 40
11.75
100
AcDbArc
 50
269.999999999873
 51
0.0
  0
ARC
  5
23C
330
1F
100
AcDbEntity
  8
1
  6
Continuous
 62
     7
100
AcDbCircle
 10
492.502859427975
 20
414.656376028225
 30
0.0
 40
7.5
100
AcDbArc
 50
90.0
 51
177.9999999999983
  0
ARC
  5
23D
330
1F
100
AcDbEntity
  8
1
  6
Continuous
 62
     7
100
AcDbCircle
 10
494.382405712575
 20
300.406376028225
 30
0.0
 40
11.75
100
AcDbArc
 50
180.0
 51
269.999999999873
  0
ARC
  5
23E
330
1F
100
AcDbEntity
  8
1
  6
Continuous
 62
     7
100
AcDbCircle
 10
492.502859427975
 20
414.656376028225
 30
0.0
 40
6.0
100
AcDbArc
 50
90.0
 51
178.0000000000003
  0
ARC
  5
23F
330
1F
100
AcDbEntity
  8
1
  6
Continuous
 62
     7
100
AcDbCircle
 10
573.26195199736
 20
414.656376028225
 30
0.0
 40
6.000000000000442
100
AcDbArc
 50
1.9999999999997
 51
90.0
  0
ARC
  5
240
330
1F
100
AcDbEntity
  8
1
  6
Continuous
 62
     7
100
AcDbCircle
 10
275.509986174905
 20
288.656376028223
 30
0.0
 40
1.0
100
AcDbArc
 50
180.0
 51
270.0
  0
ARC
  5
241
330
1F
100
AcDbEntity
  8
2
  6
Continuous
 62
     7
100
AcDbCircle
 10
273.759986174776
 20
300.406376028225
 30
0.0
 40
11.75
100
AcDbArc
 50
180.0
 51
270.0
  0
ARC
  5
242
330
1F
100
AcDbEntity
  8
2
  6
Continuous
 62
     7
100
AcDbCircle
 10
350.759986174776
 20
300.406376028225
 30
0.0
 40
11.75
100
AcDbArc
 50
270.0
 51
0.0
  0
ARC
  5
243
330
1F
100
AcDbEntity
  8
2
  6
Continuous
 62
     7
100
AcDbCircle
 10
271.880439890199
 20
414.656376028225
 30
0.0
 40
7.5
100
AcDbArc
 50
90.0
 51
177.9999999999983
  0
ARC
  5
244
330
1F
100
AcDbEntity
  8
2
  6
Continuous
 62
     7
100
AcDbCircle
 10
352.639532459584
 20
414.656376028225
 30
0.0
 40
7.499999999999767
100
AcDbArc
 50
2.00000000000197
 51
90.0
  0
ARC
  5
245
330
1F
100
AcDbEntity
  8
2
  6
Continuous
 62
     7
100
AcDbCircle
 10
676.48571941268
 20
349.406376028225
 30
0.0
 40
249.999999999999
100
AcDbArc
 50
164.8433879096399
 51
180.0
  0
ARC
  5
246
330
1F
100
AcDbEntity
  8
2
  6
Continuous
 62
     7
100
AcDbCircle
 10
444.834176141327
 20
412.156376028225
 30
0.0
 40
10.0
100
AcDbArc
 50
90.0
 51
164.8433879123257
  0
ARC
  5
247
330
1F
100
AcDbEntity
  8
2
  6
Continuous
 62
     7
100
AcDbCircle
 10
431.102578458516
 20
327.156376028225
 30
0.0
 40
9.999999999999815
100
AcDbArc
 50
15.28999135822023
 51
90.0
  0
ARC
  5
248
330
1F
100
AcDbEntity
  8
2
  6
Continuous
 62
     7
100
AcDbCircle
 10
435.735719412681
 20
297.906376028225
 30
0.0
 40
9.25
100
AcDbArc
 50
180.0
 51
270.0
  0
ARC
  5
249
330
1F
100
AcDbEntity
  8
1
  6
Continuous
 62
     7
100
AcDbCircle
 10
432.485719412681
 20
289.656376028226
 30
0.0
 40
2.0
100
AcDbArc
 50
180.0
 51
270.0
  0
ARC
  5
24A
330
1F
100
AcDbEntity
  8
1
  6
Continuous
 62
     7
100
AcDbCircle
 10
430.911749934662
 20
326.906376028225
 30
0.0
 40
9.999999999999815
100
AcDbArc
 50
15.28999135822023
 51
90.0
  0
ARC
  5
24B
330
1F
100
AcDbEntity
  8
1
  6
Continuous
 62
     7
100
AcDbCircle
 10
349.009986174902
 20
288.656376028223
 30
0.0
 40
1.0
100
AcDbArc
 50
270.0
 51
0.0
  0
ARC
  5
24C
330
1F
100
AcDbEntity
  8
1
  6
Continuous
 62
     7
100
AcDbCircle
 10
430.911749934662
 20
326.906376028225
 30
0.0
 40
9.749999999999924
100
AcDbArc
 50
15.28999135822427
 51
90.0
  0
ARC
  5
24D
330
1F
100
AcDbEntity
  8
1
  6
Continuous
 62
     7
100
AcDbCircle
 10
312.259986174904
 20
243.032139490376
 30
0.0
 40
5.0
100
AcDbArc
 50
0.0
 51
180.0
  0
ARC
  5
24E
330
1F
100
AcDbEntity
  8
1
  6
Continuous
 62
     7
100
AcDbCircle
 10
312.259986174904
 20
243.032139490376
 30
0.0
 40
5.0
100
AcDbArc
 50
180.0
 51
0.0
  0
ARC
  5
24F
330
1F
100
AcDbEntity
  8
1
  6
Continuous
 62
     7
100
AcDbCircle
 10
282.259986174904
 20
243.032139490376
 30
0.0
 40
5.0
100
AcDbArc
 50
0.0
 51
180.0
  0
ARC
  5
250
330
1F
100
AcDbEntity
  8
1
  6
Continuous
 62
     7
100
AcDbCircle
 10
282.259986174904
 20
243.032139490376
 30
0.0
 40
5.0
100
AcDbArc
 50
180.0
 51
0.0
  0
ARC
  5
251
330
1F
100
AcDbEntity
  8
1
  6
Continuous
 62
     7
100
AcDbCircle
 10
297.259986174904
 20
243.032139490376
 30
0.0
 40
5.0
100
AcDbArc
 50
180.0
 51
0.0
  0
ARC
  5
252
330
1F
100
AcDbEntity
  8
1
  6
Continuous
 62
     7
100
AcDbCircle
 10
297.259986174904
 20
243.032139490376
 30
0.0
 40
5.0
100
AcDbArc
 50
0.0
 51
180.0
  0
ARC
  5
253
330
1F
100
AcDbEntity
  8
1
  6
Continuous
 62
     7
100
AcDbCircle
 10
277.009986174904
 20
248.282139490376
 30
0.0
 40
2.5
100
AcDbArc
 50
90.0
 51
180.0
  0
ARC
  5
254
330
1F
100
AcDbEntity
  8
1
  6
Continuous
 62
     7
100
AcDbCircle
 10
327.259986174904
 20
243.032139490376
 30
0.0
 40
5.0
100
AcDbArc
 50
180.0
 51
0.0
  0
ARC
  5
255
330
1F
100
AcDbEntity
  8
2
  6
Continuous
 62
     7
100
AcDbCircle
 10
353.259986174908
 20
244.149288663766
 30
0.0
 40
9.25
100
AcDbArc
 50
359.9999999999877
 51
86.83458251147819
  0
ARC
  5
256
330
1F
100
AcDbEntity
  8
2
  6
Continuous
 62
     7
100
AcDbCircle
 10
271.259986174908
 20
244.149288834424
 30
0.0
 40
9.25000000000091
100
AcDbArc
 50
93.16541725020386
 51
180.0
  0
ARC
  5
257
330
1F
100
AcDbEntity
  8
2
  6
Continuous
 62
     7
100
AcDbCircle
 10
312.259984631978
 20
-497.217860509622
 30
0.0
 40
751.7499999999991
100
AcDbArc
 50
89.99999988240354
 51
93.16541725018394
  0
ARC
  5
258
330
1F
100
AcDbEntity
  8
1
  6
Continuous
 62
     7
100
AcDbCircle
 10
342.259986174903
 20
243.032139490376
 30
0.0
 40
5.0
100
AcDbArc
 50
0.0
 51
180.0
  0
ARC
  5
259
330
1F
100
AcDbEntity
  8
1
  6
Continuous
 62
     7
100
AcDbCircle
 10
327.259986174904
 20
243.032139490376
 30
0.0
 40
5.0
100
AcDbArc
 50
0.0
 51
180.0
  0
ARC
  5
25A
330
1F
100
AcDbEntity
  8
1
  6
Continuous
 62
     7
100
AcDbCircle
 10
347.509986174903
 20
248.282139490376
 30
0.0
 40
2.5
100
AcDbArc
 50
0.0
 51
90.0
  0
ARC
  5
25B
330
1F
100
AcDbEntity
  8
1
  6
Continuous
 62
     7
100
AcDbCircle
 10
342.259986174903
 20
243.032139490376
 30
0.0
 40
5.0
100
AcDbArc
 50
180.0
 51
0.0
  0
ARC
  5
25C
330
1F
100
AcDbEntity
  8
1
  6
DASHED
 62
     7
100
AcDbCircle
 10
532.882405712676
 20
426.656376028225
 30
0.0
 40
1.25
100
AcDbArc
 50
0.0
 51
180.0
  0
ARC
  5
25D
330
1F
100
AcDbEntity
  8
1
  6
DASHED
 62
     7
100
AcDbCircle
 10
532.882405712676
 20
424.656376028225
 30
0.0
 40
1.999999999999532
100
AcDbArc
 50
128.6821874535001
 51
51.31781254649983
  0
ARC
  5
25E
330
1F
100
AcDbEntity
  8
1
  6
DASHED
 62
     7
100
AcDbCircle
 10
522.882405712676
 20
421.120842122292
 30
0.0
 40
2.499999999999457
100
AcDbArc
 50
135.0
 51
180.0
  0
ARC
  5
25F
330
1F
100
AcDbEntity
  8
1
  6
DASHED
 62
     7
100
AcDbCircle
 10
542.882405712676
 20
421.120842122292
 30
0.0
 40
2.5
100
AcDbArc
 50
0.0
 51
44.99999999998342
  0
ARC
  5
260
330
1F
100
AcDbEntity
  8
1
  6
DASHED
 62
     7
100
AcDbCircle
 10
536.346871806743
 20
427.656376028225
 30
0.0
 40
2.500000000000181
100
AcDbArc
 50
44.99999999998342
 51
90.0
  0
ARC
  5
261
330
1F
100
AcDbEntity
  8
1
  6
DASHED
 62
     7
100
AcDbCircle
 10
529.417939618609
 20
427.656376028225
 30
0.0
 40
2.5
100
AcDbArc
 50
90.0
 51
135.0
  0
ARC
  5
262
102
{ACAD_REACTORS
330
29D
330
29D
102
}
330
1F
100
AcDbEntity
  8
1
  6
Continuous
 62
     7
100
AcDbCircle
 10
348.678257899001
 20
308.443889646066
 30
0.0
 40
0.0758131754129749
100
AcDbArc
 50
270.0
 51
359.9999999992268
  0
ARC
  5
263
102
{ACAD_REACTORS
330
29D
330
29D
102
}
330
1F
100
AcDbEntity
  8
1
  6
Continuous
 62
     7
100
AcDbCircle
 10
348.526631548173
 20
308.443889646066
 30
0.0
 40
0.0758131754139981
100
AcDbArc
 50
180.0
 51
270.0
  0
ARC
  5
264
102
{ACAD_REACTORS
330
29D
330
29D
102
}
330
1F
100
AcDbEntity
  8
1
  6
Continuous
 62
     7
100
AcDbCircle
 10
348.829884249829
 20
310.490845382241
 30
0.0
 40
0.0758131754139981
100
AcDbArc
 50
90.0
 51
180.0000000015036
  0
ARC
  5
265
102
{ACAD_REACTORS
330
29D
330
29D
102
}
330
1F
100
AcDbEntity
  8
1
  6
Continuous
 62
     7
100
AcDbCircle
 10
348.829884249829
 20
310.490845382241
 30
0.0
 40
0.3790658770680011
100
AcDbArc
 50
90.0
 51
180.0
  0
ARC
  5
266
102
{ACAD_REACTORS
330
29D
330
29D
102
}
330
1F
100
AcDbEntity
  8
1
  6
Continuous
 62
     7
100
AcDbCircle
 10
350.876839986004
 20
310.490845382241
 30
0.0
 40
0.3790658770690243
100
AcDbArc
 50
0.0
 51
90.0
  0
ARC
  5
267
102
{ACAD_REACTORS
330
29D
330
29D
102
}
330
1F
100
AcDbEntity
  8
1
  6
Continuous
 62
     7
100
AcDbCircle
 10
350.876839986004
 20
310.490845382241
 30
0.0
 40
0.075813175414055
100
AcDbArc
 50
359.9999999984964
 51
90.0
  0
ARC
  5
268
102
{ACAD_REACTORS
330
29D
330
29D
102
}
330
1F
100
AcDbEntity
  8
1
  6
Continuous
 62
     7
100
AcDbCircle
 10
350.876839986004
 20
310.187592680585
 30
0.0
 40
0.0758131754139981
100
AcDbArc
 50
270.0
 51
0.0
  0
ARC
  5
269
102
{ACAD_REACTORS
330
29D
330
29D
102
}
330
1F
100
AcDbEntity
  8
1
  6
Continuous
 62
     7
100
AcDbCircle
 10
350.876839986004
 20
310.187592680585
 30
0.0
 40
0.3790658770690243
100
AcDbArc
 50
270.0
 51
0.0
  0
ARC
  5
26A
102
{ACAD_REACTORS
330
29D
330
29D
102
}
330
1F
100
AcDbEntity
  8
1
  6
Continuous
 62
     7
100
AcDbCircle
 10
351.067636009825
 20
308.484517804321
 30
0.0
 40
0.0758131754130386
100
AcDbArc
 50
239.9999999996061
 51
330.0000000010119
  0
ARC
  5
26B
102
{ACAD_REACTORS
330
29D
330
29D
102
}
330
1F
100
AcDbEntity
  8
1
  6
Continuous
 62
     7
100
AcDbCircle
 10
351.143449185239
 20
308.615830076021
 30
0.0
 40
0.0758131754148108
100
AcDbArc
 50
330.0000000003794
 51
59.99999999970974
  0
ARC
  5
26C
330
1F
100
AcDbEntity
  8
1
  6
Continuous
 62
     7
100
AcDbCircle
 10
343.30081837276
 20
308.51807647065
 30
0.0
 40
0.6576473218982762
100
AcDbArc
 50
171.2538377374425
 51
261.2538377374474
  0
ARC
  5
26D
330
1F
100
AcDbEntity
  8
1
  6
Continuous
 62
     7
100
AcDbCircle
 10
343.300818372759
 20
313.218076470649
 30
0.0
 40
0.6576473218982762
100
AcDbArc
 50
98.74616226255748
 51
188.7461622625567
  0
ARC
  5
26E
102
{ACAD_REACTORS
330
29E
330
29E
102
}
330
1F
100
AcDbEntity
  8
1
  6
Continuous
 62
     7
100
AcDbCircle
 10
343.878257899001
 20
308.443889646065
 30
0.0
 40
0.0758131754129749
100
AcDbArc
 50
270.0
 51
359.9999999992697
  0
ARC
  5
26F
102
{ACAD_REACTORS
330
29E
330
29E
102
}
330
1F
100
AcDbEntity
  8
1
  6
Continuous
 62
     7
100
AcDbCircle
 10
343.726631548173
 20
308.443889646065
 30
0.0
 40
0.0758131754139981
100
AcDbArc
 50
180.0
 51
270.0
  0
ARC
  5
270
102
{ACAD_REACTORS
330
29E
330
29E
102
}
330
1F
100
AcDbEntity
  8
1
  6
Continuous
 62
     7
100
AcDbCircle
 10
344.029884249829
 20
310.490845382239
 30
0.0
 40
0.0758131754150213
100
AcDbArc
 50
90.0
 51
180.0000000007733
  0
ARC
  5
271
102
{ACAD_REACTORS
330
29E
330
29E
102
}
330
1F
100
AcDbEntity
  8
1
  6
Continuous
 62
     7
100
AcDbCircle
 10
344.029884249829
 20
310.490845382239
 30
0.0
 40
0.3790658770690243
100
AcDbArc
 50
90.0
 51
180.0
  0
ARC
  5
272
102
{ACAD_REACTORS
330
29E
330
29E
102
}
330
1F
100
AcDbEntity
  8
1
  6
Continuous
 62
     7
100
AcDbCircle
 10
346.076839986004
 20
310.490845382239
 30
0.0
 40
0.3790658770689674
100
AcDbArc
 50
0.0
 51
90.0
  0
ARC
  5
273
102
{ACAD_REACTORS
330
29E
330
29E
102
}
330
1F
100
AcDbEntity
  8
1
  6
Continuous
 62
     7
100
AcDbCircle
 10
346.076839986004
 20
310.490845382239
 30
0.0
 40
0.0758131754139981
100
AcDbArc
 50
359.9999999992268
 51
90.0
  0
ARC
  5
274
102
{ACAD_REACTORS
330
29E
330
29E
102
}
330
1F
100
AcDbEntity
  8
1
  6
Continuous
 62
     7
100
AcDbCircle
 10
346.076839986004
 20
310.187592680584
 30
0.0
 40
0.0758131754139981
100
AcDbArc
 50
270.0
 51
0.0
  0
ARC
  5
275
102
{ACAD_REACTORS
330
29E
330
29E
102
}
330
1F
100
AcDbEntity
  8
1
  6
Continuous
 62
     7
100
AcDbCircle
 10
346.076839986004
 20
310.187592680584
 30
0.0
 40
0.3790658770689674
100
AcDbArc
 50
270.000000000146
 51
0.0
  0
ARC
  5
276
102
{ACAD_REACTORS
330
29E
330
29E
102
}
330
1F
100
AcDbEntity
  8
1
  6
Continuous
 62
     7
100
AcDbCircle
 10
346.267636009825
 20
308.484517804321
 30
0.0
 40
0.0758131754134415
100
AcDbArc
 50
240.0000000006252
 51
330.0000000003207
  0
ARC
  5
277
102
{ACAD_REACTORS
330
29E
330
29E
102
}
330
1F
100
AcDbEntity
  8
1
  6
Continuous
 62
     7
100
AcDbCircle
 10
346.343449185239
 20
308.61583007602
 30
0.0
 40
0.07581317541479
100
AcDbArc
 50
330.0000000003207
 51
59.99999999968825
  0
ARC
  5
278
330
1F
100
AcDbEntity
  8
1
  6
Continuous
 62
     7
100
AcDbCircle
 10
351.60081837276
 20
308.518076470649
 30
0.0
 40
0.6576473218983324
100
AcDbArc
 50
278.7461622625567
 51
8.74616226255182
  0
ARC
  5
279
330
1F
100
AcDbEntity
  8
1
  6
Continuous
 62
     7
100
AcDbCircle
 10
351.60081837276
 20
313.218076470649
 30
0.0
 40
0.6576473218983324
100
AcDbArc
 50
351.2538377374433
 51
81.25383773744254
  0
ARC
  5
27A
330
1F
100
AcDbEntity
  8
1
  6
Continuous
 62
     7
100
AcDbCircle
 10
525.982405712676
 20
405.256376028224
 30
0.0
 40
0.3333333333330302
100
AcDbArc
 50
180.0
 51
270.0
  0
ARC
  5
27B
330
1F
100
AcDbEntity
  8
1
  6
Continuous
 62
     7
100
AcDbCircle
 10
524.782405712676
 20
405.256376028224
 30
0.0
 40
0.333333333332007
100
AcDbArc
 50
270.0
 51
0.0
  0
ARC
  5
27C
330
1F
100
AcDbEntity
  8
1
  6
Continuous
 62
     7
100
AcDbCircle
 10
524.782405712676
 20
404.056376028224
 30
0.0
 40
0.3333333333340533
100
AcDbArc
 50
0.0
 51
90.0
  0
ARC
  5
27D
330
1F
100
AcDbEntity
  8
1
  6
Continuous
 62
     7
100
AcDbCircle
 10
525.982405712676
 20
404.056376028224
 30
0.0
 40
0.3333333333339965
100
AcDbArc
 50
90.0
 51
180.0
  0
ARC
  5
27E
330
1F
100
AcDbEntity
  8
1
  6
Continuous
 62
     7
100
AcDbCircle
 10
540.982405712676
 20
405.256376028224
 30
0.0
 40
0.3333333333330302
100
AcDbArc
 50
180.0
 51
270.0
  0
ARC
  5
27F
330
1F
100
AcDbEntity
  8
1
  6
Continuous
 62
     7
100
AcDbCircle
 10
539.782405712676
 20
405.256376028224
 30
0.0
 40
0.333333333332007
100
AcDbArc
 50
270.0
 51
0.0
  0
ARC
  5
280
330
1F
100
AcDbEntity
  8
1
  6
Continuous
 62
     7
100
AcDbCircle
 10
539.782405712676
 20
404.056376028224
 30
0.0
 40
0.3333333333340533
100
AcDbArc
 50
0.0
 51
90.0
  0
ARC
  5
281
330
1F
100
AcDbEntity
  8
1
  6
Continuous
 62
     7
100
AcDbCircle
 10
540.982405712676
 20
404.056376028224
 30
0.0
 40
0.3333333333339965
100
AcDbArc
 50
90.0
 51
180.0
  0
ARC
  5
282
330
1F
100
AcDbEntity
  8
1
  6
Continuous
 62
     7
100
AcDbCircle
 10
271.810613352993
 20
299.356376028225
 30
0.0
 40
0.25
100
AcDbArc
 50
270.0
 51
0.0
  0
ARC
  5
283
330
1F
100
AcDbEntity
  8
1
  6
Continuous
 62
     7
100
AcDbCircle
 10
272.710613352993
 20
299.356376028225
 30
0.0
 40
0.25
100
AcDbArc
 50
180.0
 51
270.0
  0
ARC
  5
284
330
1F
100
AcDbEntity
  8
1
  6
Continuous
 62
     7
100
AcDbCircle
 10
272.710613352993
 20
298.456376028225
 30
0.0
 40
0.25
100
AcDbArc
 50
90.0
 51
180.0
  0
ARC
  5
285
330
1F
100
AcDbEntity
  8
1
  6
Continuous
 62
     7
100
AcDbCircle
 10
271.810613352993
 20
298.456376028225
 30
0.0
 40
0.25
100
AcDbArc
 50
0.0
 51
90.0
  0
ARC
  5
286
330
1F
100
AcDbEntity
  8
1
  6
Continuous
 62
     7
100
AcDbCircle
 10
352.709358996815
 20
299.356376028225
 30
0.0
 40
0.25
100
AcDbArc
 50
180.0
 51
270.0
  0
ARC
  5
287
330
1F
100
AcDbEntity
  8
1
  6
Continuous
 62
     7
100
AcDbCircle
 10
351.809358996815
 20
299.356376028225
 30
0.0
 40
0.25
100
AcDbArc
 50
270.0
 51
0.0
  0
ARC
  5
288
330
1F
100
AcDbEntity
  8
1
  6
Continuous
 62
     7
100
AcDbCircle
 10
351.809358996815
 20
298.456376028225
 30
0.0
 40
0.25
100
AcDbArc
 50
0.0
 51
90.0
  0
ARC
  5
289
330
1F
100
AcDbEntity
  8
1
  6
Continuous
 62
     7
100
AcDbCircle
 10
352.709358996815
 20
298.456376028225
 30
0.0
 40
0.25
100
AcDbArc
 50
90.0
 51
180.0
  0
ARC
  5
28A
330
1F
100
AcDbEntity
  8
1
  6
Continuous
 62
     7
100
AcDbCircle
 10
350.759986174904
 20
340.906376028222
 30
0.0
 40
1.5
100
AcDbArc
 50
270.0
 51
0.0
  0
ARC
  5
28B
330
1F
100
AcDbEntity
  8
1
  6
Continuous
 62
     7
100
AcDbCircle
 10
350.759986174904
 20
367.906376028222
 30
0.0
 40
1.5
100
AcDbArc
 50
0.0
 51
90.0
  0
ARC
  5
28C
330
1F
100
AcDbEntity
  8
1
  6
Continuous
 62
     7
100
AcDbCircle
 10
313.759986174904
 20
367.906376028222
 30
0.0
 40
1.5
100
AcDbArc
 50
90.0
 51
180.0
  0
ARC
  5
28D
330
1F
100
AcDbEntity
  8
1
  6
Continuous
 62
     7
100
AcDbCircle
 10
313.759986174904
 20
340.906376028222
 30
0.0
 40
1.5
100
AcDbArc
 50
180.0
 51
270.0
  0
ARC
  5
28E
330
1F
100
AcDbEntity
  8
1
  6
DASHED
 62
     7
100
AcDbCircle
 10
312.259986174574
 20
426.656376028949
 30
0.0
 40
1.25
100
AcDbArc
 50
0.0
 51
180.0
  0
CIRCLE
  5
28F
330
1F
100
AcDbEntity
  8
1
  6
Continuous
 62
     7
100
AcDbCircle
 10
272.260613352993
 20
298.906376028225
 30
0.0
 40
1.5
  0
CIRCLE
  5
290
330
1F
100
AcDbEntity
  8
1
  6
Continuous
 62
     7
100
AcDbCircle
 10
352.259358996815
 20
298.906376028225
 30
0.0
 40
1.5
  0
CIRCLE
  5
291
330
1F
100
AcDbEntity
  8
1
  6
Continuous
 62
     7
100
AcDbCircle
 10
540.382405712676
 20
404.656376028225
 30
0.0
 40
2.0
  0
CIRCLE
  5
292
330
1F
100
AcDbEntity
  8
1
  6
Continuous
 62
     7
100
AcDbCircle
 10
525.382405712676
 20
404.656376028225
 30
0.0
 40
2.0
  0
CIRCLE
  5
293
330
1F
100
AcDbEntity
  8
1
  6
Continuous
 62
     7
100
AcDbCircle
 10
502.882405712677
 20
310.656376028225
 30
0.0
 40
0.875
  0
CIRCLE
  5
294
330
1F
100
AcDbEntity
  8
1
  6
Continuous
 62
     7
100
AcDbCircle
 10
562.882405712674
 20
310.656376028225
 30
0.0
 40
0.875
  0
CIRCLE
  5
295
330
1F
100
AcDbEntity
  8
1
  6
Continuous
 62
     7
100
AcDbCircle
 10
562.882405712674
 20
310.656376028225
 30
0.0
 40
2.0
  0
CIRCLE
  5
296
330
1F
100
AcDbEntity
  8
1
  6
Continuous
 62
     7
100
AcDbCircle
 10
502.882405712677
 20
310.656376028225
 30
0.0
 40
2.0
  0
CIRCLE
  5
297
330
1F
100
AcDbEntity
  8
1
  6
Continuous
 62
     7
100
AcDbCircle
 10
502.882405712677
 20
300.656376028225
 30
0.0
 40
2.5
  0
CIRCLE
  5
298
330
1F
100
AcDbEntity
  8
1
  6
Continuous
 62
     7
100
AcDbCircle
 10
562.882405712674
 20
300.656376028225
 30
0.0
 40
2.5
  0
CIRCLE
  5
299
330
1F
100
AcDbEntity
  8
1
  6
Continuous
 62
     7
100
AcDbCircle
 10
562.882405712674
 20
300.656376028225
 30
0.0
 40
1.125
  0
CIRCLE
  5
29A
330
1F
100
AcDbEntity
  8
1
  6
Continuous
 62
     7
100
AcDbCircle
 10
502.882405712677
 20
300.656376028225
 30
0.0
 40
1.125
  0
CIRCLE
  5
29B
330
1F
100
AcDbEntity
  8
2
  6
Continuous
 62
     7
100
AcDbCircle
 10
352.259986174904
 20
298.906376028225
 30
0.0
 40
2.125
  0
CIRCLE
  5
29C
330
1F
100
AcDbEntity
  8
2
  6
Continuous
 62
     7
100
AcDbCircle
 10
272.259986174904
 20
298.906376028225
 30
0.0
 40
2.125
  0
HATCH
  5
29D
330
1F
100
AcDbEntity
  8
1
  6
Continuous
 62
     7
100
AcDbHatch
 10
0.0
 20
0.0
 30
0.0
210
0.0
220
0.0
230
1.0
  2
CUSTOM0
 70
     0
 71
     1
 91
        1
 92
        1
 93
       24
 72
     1
 10
351.255905863073
 20
310.490845382241
 11
351.255905863073
 21
310.187592680585
 72
     2
 10
350.876839986004
 20
310.187592680585
 40
0.3790658770690243
 50
0.0
 51
90.0
 73
     0
 72
     1
 10
350.876839986004
 20
309.808526803516
 11
349.512202828554
 21
309.808526803516
 72
     2
 10
349.512202828554
 20
309.732713628102
 40
0.0758131754139981
 50
90.0
 51
240.0000000003579
 73
     1
 72
     1
 10
349.474296240847
 20
309.667057492251
 11
351.181355772947
 21
308.681486211872
 72
     2
 10
351.143449185239
 20
308.615830076021
 40
0.0758131754148108
 50
300.0000000002902
 51
389.9999999996205
 73
     0
 72
     1
 10
351.20910532109
 20
308.577923488314
 11
351.133292145676
 21
308.446611216615
 72
     2
 10
351.067636009825
 20
308.484517804321
 40
0.0758131754130386
 50
29.99999999898814
 51
120.0000000003938
 73
     0
 72
     1
 10
351.029729422118
 20
308.418861668472
 11
349.322669890019
 21
309.404432948852
 72
     2
 10
349.512202828554
 20
309.732713628102
 40
0.3790658770680011
 50
120.0000000000381
 51
270.0
 73
     0
 72
     1
 10
349.512202828554
 20
310.11177950517
 11
350.876839986004
 21
310.111779505171
 72
     2
 10
350.876839986004
 20
310.187592680585
 40
0.0758131754139981
 50
270.0
 51
360.0
 73
     1
 72
     1
 10
350.952653161418
 20
310.187592680585
 11
350.952653161418
 21
310.490845382239
 72
     2
 10
350.876839986004
 20
310.490845382241
 40
0.075813175414055
 50
359.9999999984964
 51
450.0
 73
     1
 72
     1
 10
350.876839986004
 20
310.566658557655
 11
348.829884249829
 21
310.566658557655
 72
     2
 10
348.829884249829
 20
310.490845382241
 40
0.0758131754139981
 50
90.0
 51
180.0000000015036
 73
     1
 72
     1
 10
348.754071074415
 20
310.490845382239
 11
348.754071074415
 21
308.443889646065
 72
     2
 10
348.678257899001
 20
308.443889646066
 40
0.0758131754129749
 50
0.0000000007732565
 51
90.0
 73
     0
 72
     1
 10
348.678257899001
 20
308.368076470653
 11
348.526631548173
 21
308.368076470653
 72
     2
 10
348.526631548173
 20
308.443889646066
 40
0.0758131754139981
 50
90.0
 51
180.0
 73
     0
 72
     1
 10
348.450818372759
 20
308.443889646066
 11
348.450818372759
 21
310.490845382241
 72
     2
 10
348.829884249829
 20
310.490845382241
 40
0.3790658770680011
 50
180.0
 51
270.0
 73
     0
 72
     1
 10
348.829884249829
 20
310.869911259309
 11
350.876839986004
 21
310.869911259309
 72
     2
 10
350.876839986004
 20
310.490845382241
 40
0.3790658770690243
 50
270.0
 51
360.0
 73
     0
 97
       24
330
7F
330
265
330
7E
330
263
330
7C
330
262
330
7D
330
264
330
81
330
267
330
82
330
268
330
83
330
204
330
85
330
26A
330
84
330
26B
330
87
330
205
330
86
330
269
330
80
330
266
 75
     1
 76
     2
 52
44.99999999999998
 41
0.005
 77
     0
 78
     1
 53
44.99999999999998
 43
0.0007609287445116
 44
-0.0007609287445116
 45
-0.0070710678118655
 46
0.0
 79
     0
 98
        1
 10
0.0
 20
0.0
  0
HATCH
  5
29E
330
1F
100
AcDbEntity
  8
1
  6
Continuous
 62
     7
100
AcDbHatch
 10
0.0
 20
0.0
 30
0.0
210
0.0
220
0.0
230
1.0
  2
CUSTOM1
 70
     0
 71
     1
 91
        1
 92
        1
 93
       24
 72
     1
 10
346.455905863073
 20
310.490845382239
 11
346.455905863073
 21
310.187592680584
 72
     2
 10
346.076839986004
 20
310.187592680584
 40
0.3790658770689674
 50
0.0
 51
89.99999999985394
 73
     0
 72
     1
 10
346.076839986005
 20
309.808526803515
 11
344.712202828554
 21
309.808526803515
 72
     2
 10
344.712202828554
 20
309.732713628101
 40
0.0758131754139981
 50
90.0
 51
240.0000000003579
 73
     1
 72
     1
 10
344.674296240847
 20
309.66705749225
 11
346.381355772947
 21
308.681486211871
 72
     2
 10
346.343449185239
 20
308.61583007602
 40
0.07581317541479
 50
300.0000000003118
 51
389.9999999996793
 73
     0
 72
     1
 10
346.40910532109
 20
308.577923488313
 11
346.333292145676
 21
308.446611216614
 72
     2
 10
346.267636009825
 20
308.484517804321
 40
0.0758131754134415
 50
29.99999999967926
 51
119.9999999993748
 73
     0
 72
     1
 10
346.229729422119
 20
308.418861668471
 11
344.522669890019
 21
309.40443294885
 72
     2
 10
344.712202828554
 20
309.732713628101
 40
0.3790658770680011
 50
119.9999999999533
 51
270.0
 73
     0
 72
     1
 10
344.712202828554
 20
310.111779505169
 11
346.076839986004
 21
310.11177950517
 72
     2
 10
346.076839986004
 20
310.187592680584
 40
0.0758131754139981
 50
270.0
 51
360.0
 73
     1
 72
     1
 10
346.152653161418
 20
310.187592680584
 11
346.152653161418
 21
310.490845382238
 72
     2
 10
346.076839986004
 20
310.490845382239
 40
0.0758131754139981
 50
359.9999999992268
 51
450.0
 73
     1
 72
     1
 10
346.076839986004
 20
310.566658557654
 11
344.029884249829
 21
310.566658557654
 72
     2
 10
344.029884249829
 20
310.490845382239
 40
0.0758131754150213
 50
90.0
 51
180.0000000007733
 73
     1
 72
     1
 10
343.954071074415
 20
310.490845382238
 11
343.954071074415
 21
308.443889646064
 72
     2
 10
343.878257899001
 20
308.443889646065
 40
0.0758131754129749
 50
0.0000000007303062
 51
90.0
 73
     0
 72
     1
 10
343.878257899001
 20
308.368076470652
 11
343.726631548173
 21
308.368076470652
 72
     2
 10
343.726631548173
 20
308.443889646065
 40
0.0758131754139981
 50
90.0
 51
180.0
 73
     0
 72
     1
 10
343.650818372759
 20
308.443889646065
 11
343.650818372759
 21
310.490845382239
 72
     2
 10
344.029884249829
 20
310.490845382239
 40
0.3790658770690243
 50
180.0
 51
270.0
 73
     0
 72
     1
 10
344.029884249829
 20
310.869911259308
 11
346.076839986004
 21
310.869911259308
 72
     2
 10
346.076839986004
 20
310.490845382239
 40
0.3790658770689674
 50
270.0
 51
360.0
 73
     0
 97
       24
330
8E
330
271
330
8D
330
26F
330
8B
330
26E
330
8C
330
270
330
90
330
273
330
91
330
274
330
92
330
206
330
94
330
276
330
93
330
277
330
96
330
207
330
95
330
275
330
8F
330
272
 75
     1
 76
     2
 52
44.99999999999998
 41
0.005
 77
     0
 78
     1
 53
44.99999999999998
 43
0.0007609287445116
 44
-0.0007609287445116
 45
-0.0070710678118655
 46
0.0
 79
     0
 98
        1
 10
0.0
 20
0.0
  0
ENDSEC
  0
SECTION
  2
OBJECTS
  0
DICTIONARY
  5
C
330
0
100
AcDbDictionary
281
     1
  3
ACAD_GROUP
350
D
  3
ACAD_LAYOUT
350
1A
  3
ACAD_MLEADERSTYLE
350
2A0
  3
ACAD_MLINESTYLE
350
17
  3
ACAD_PLOTSETTINGS
350
19
  3
ACAD_PLOTSTYLENAME
350
E
  3
ACAD_TABLESTYLE
350
29F
  3
ACAD_VISUALSTYLE
350
2A
  0
DICTIONARY
  5
D
102
{ACAD_REACTORS
330
C
102
}
330
C
100
AcDbDictionary
281
     1
  0
DICTIONARY
  5
1A
102
{ACAD_REACTORS
330
C
102
}
330
C
100
AcDbDictionary
281
     1
  3
Layout1
350
1E
  3
Layout2
350
26
  3
Model
350
22
  0
DICTIONARY
  5
2A0
102
{ACAD_REACTORS
330
C
102
}
330
C
100
AcDbDictionary
281
     1
  0
DICTIONARY
  5
17
102
{ACAD_REACTORS
330
C
102
}
330
C
100
AcDbDictionary
281
     1
  3
Standard
350
18
  0
DICTIONARY
  5
19
102
{ACAD_REACTORS
330
C
102
}
330
C
100
AcDbDictionary
281
     1
  0
ACDBDICTIONARYWDFLT
  5
E
102
{ACAD_REACTORS
330
C
102
}
330
C
100
AcDbDictionary
281
     1
  3
Normal
350
F
100
AcDbDictionaryWithDefault
340
F
  0
DICTIONARY
  5
29F
102
{ACAD_REACTORS
330
C
102
}
330
C
100
AcDbDictionary
281
     1
  0
DICTIONARY
  5
2A
102
{ACAD_REACTORS
330
C
102
}
330
C
100
AcDbDictionary
281
     1
  3
2dWireframe
350
2F
  3
3D Hidden
350
31
  3
3dWireframe
350
30
  3
Basic
350
32
  3
Brighten
350
36
  3
ColorChange
350
3A
  3
Conceptual
350
34
  3
Dim
350
35
  3
Facepattern
350
39
  3
Flat
350
2B
  3
FlatWithEdges
350
2C
  3
Gouraud
350
2D
  3
GouraudWithEdges
350
2E
  3
Linepattern
350
38
  3
Realistic
350
33
  3
Thicken
350
37
  0
LAYOUT
  5
1E
102
{ACAD_REACTORS
330
1A
102
}
330
1A
100
AcDbPlotSettings
  1

  2
none_device
  4

  6

 40
0.0
 41
0.0
 42
0.0
 43
0.0
 44
0.0
 45
0.0
 46
0.0
 47
0.0
 48
0.0
 49
0.0
140
0.0
141
0.0
142
1.0
143
1.0
 70
   688
 72
     0
 73
     0
 74
     5
  7

 75
    16
 76
     0
 77
     2
 78
   300
147
1.0
148
0.0
149
0.0
100
AcDbLayout
  1
Layout1
 70
     1
 71
     1
 10
0.0
 20
0.0
 11
12.0
 21
9.0
 12
0.0
 22
0.0
 32
0.0
 14
1.00000000000000E+20
 24
1.00000000000000E+20
 34
1.00000000000000E+20
 15
-1.00000000000000E+20
 25
-1.00000000000000E+20
 35
-1.00000000000000E+20
146
0.0
 13
0.0
 23
0.0
 33
0.0
 16
1.0
 26
0.0
 36
0.0
 17
0.0
 27
1.0
 37
0.0
 76
     0
330
1B
  0
LAYOUT
  5
26
102
{ACAD_REACTORS
330
1A
102
}
330
1A
100
AcDbPlotSettings
  1

  2
none_device
  4

  6

 40
0.0
 41
0.0
 42
0.0
 43
0.0
 44
0.0
 45
0.0
 46
0.0
 47
0.0
 48
0.0
 49
0.0
140
0.0
141
0.0
142
1.0
143
1.0
 70
   688
 72
     0
 73
     0
 74
     5
  7

 75
    16
 76
     0
 77
     2
 78
   300
147
1.0
148
0.0
149
0.0
100
AcDbLayout
  1
Layout2
 70
     1
 71
     2
 10
0.0
 20
0.0
 11
0.0
 21
0.0
 12
0.0
 22
0.0
 32
0.0
 14
0.0
 24
0.0
 34
0.0
 15
0.0
 25
0.0
 35
0.0
146
0.0
 13
0.0
 23
0.0
 33
0.0
 16
1.0
 26
0.0
 36
0.0
 17
0.0
 27
1.0
 37
0.0
 76
     0
330
23
  0
LAYOUT
  5
22
102
{ACAD_REACTORS
330
1A
102
}
330
1A
100
AcDbPlotSettings
  1

  2
none_device
  4

  6

 40
0.0
 41
0.0
 42
0.0
 43
0.0
 44
0.0
 45
0.0
 46
0.0
 47
0.0
 48
0.0
 49
0.0
140
0.0
141
0.0
142
1.0
143
1.0
 70
  1712
 72
     0
 73
     0
 74
     0
  7

 75
     0
 76
     0
 77
     2
 78
   300
147
1.0
148
0.0
149
0.0
100
AcDbLayout
  1
Model
 70
     1
 71
     0
 10
0.0
 20
0.0
 11
12.0
 21
9.0
 12
0.0
 22
0.0
 32
0.0
 14
262.009986171856
 24
228.782139490376
 34
0.0
 15
583.132405712667
 25
430.156376028225
 35
0.0
146
0.0
 13
0.0
 23
0.0
 33
0.0
 16
1.0
 26
0.0
 36
0.0
 17
0.0
 27
1.0
 37
0.0
 76
     0
330
1F
331
29
  0
MLINESTYLE
  5
18
102
{ACAD_REACTORS
330
17
102
}
330
17
100
AcDbMlineStyle
  2
Standard
 70
     0
  3

 62
   256
 51
90.0
 52
90.0
 71
     2
 49
0.5
 62
   256
  6
BYLAYER
 49
-0.5
 62
   256
  6
BYLAYER
  0
ACDBPLACEHOLDER
  5
F
102
{ACAD_REACTORS
330
E
102
}
330
E
  0
VISUALSTYLE
  5
2F
102
{ACAD_REACTORS
330
2A
102
}
330
2A
100
AcDbVisualStyle
  2
2dWireframe
 70
     4
 71
     0
 72
     2
 73
     0
 90
        0
 40
-0.6
 41
-30.0
 62
     5
 63
     7
421
 16777215
 74
     1
 91
        4
 64
     7
 65
   257
 75
     1
175
     1
 42
1.0
 92
        0
 66
   257
 43
1.0
 76
     1
 77
     6
 78
     2
 67
     7
 79
     5
170
     0
171
     0
290
     0
174
     0
 93
        1
 44
0.0
173
     0
291
     0
 45
0.0
  0
VISUALSTYLE
  5
31
102
{ACAD_REACTORS
330
2A
102
}
330
2A
100
AcDbVisualStyle
  2
3D Hidden
 70
     6
 71
     1
 72
     2
 73
     2
 90
        0
 40
-0.6
 41
-30.0
 62
     5
 63
     7
421
 16777215
 74
     2
 91
        2
 64
     7
 65
   257
 75
     2
175
     1
 42
40.0
 92
        0
 66
   257
 43
1.0
 76
     1
 77
     6
 78
     2
 67
     7
 79
     3
170
     0
171
     0
290
     0
174
     0
 93
        1
 44
0.0
173
     0
291
     0
 45
0.0
  0
VISUALSTYLE
  5
30
102
{ACAD_REACTORS
330
2A
102
}
330
2A
100
AcDbVisualStyle
  2
3dWireframe
 70
     5
 71
     0
 72
     2
 73
     0
 90
        0
 40
-0.6
 41
-30.0
 62
     5
 63
     7
421
 16777215
 74
     1
 91
        4
 64
     7
 65
   257
 75
     1
175
     1
 42
1.0
 92
        0
 66
   257
 43
1.0
 76
     1
 77
     6
 78
     2
 67
     7
 79
     5
170
     0
171
     0
290
     0
174
     0
 93
        1
 44
0.0
173
     0
291
     0
 45
0.0
  0
VISUALSTYLE
  5
32
102
{ACAD_REACTORS
330
2A
102
}
330
2A
100
AcDbVisualStyle
  2
Basic
 70
     7
 71
     1
 72
     0
 73
     1
 90
        0
 40
-0.6
 41
-30.0
 62
     5
 63
     7
421
 16777215
 74
     0
 91
        4
 64
     7
 65
   257
 75
     1
175
     1
 42
1.0
 92
        8
 66
     7
 43
1.0
 76
     1
 77
     6
 78
     2
 67
     7
 79
     5
170
     0
171
     0
290
     0
174
     0
 93
        1
 44
0.0
173
     0
291
     1
 45
0.0
  0
VISUALSTYLE
  5
36
102
{ACAD_REACTORS
330
2A
102
}
330
2A
100
AcDbVisualStyle
  2
Brighten
 70
    12
 71
     2
 72
     2
 73
     0
 90
        0
 40
-0.6
 41
-30.0
 62
     5
 63
     7
421
 16777215
 74
     1
 91
        4
 64
     7
 65
   257
 75
     1
175
     1
 42
1.0
 92
        8
 66
     7
 43
1.0
 76
     1
 77
     6
 78
     2
 67
     7
 79
     5
170
     0
171
     0
290
     0
174
     0
 93
        1
 44
50.0
173
     0
291
     1
 45
0.0
  0
VISUALSTYLE
  5
3A
102
{ACAD_REACTORS
330
2A
102
}
330
2A
100
AcDbVisualStyle
  2
ColorChange
 70
    16
 71
     2
 72
     2
 73
     3
 90
        0
 40
-0.6
 41
-30.0
 62
     5
 63
     8
421
  8421504
 74
     1
 91
        4
 64
     7
 65
   257
 75
     1
175
     1
 42
1.0
 92
        8
 66
     8
424
  8421504
 43
1.0
 76
     1
 77
     6
 78
     2
 67
     7
 79
     5
170
     0
171
     0
290
     0
174
     0
 93
        1
 44
0.0
173
     0
291
     1
 45
0.0
  0
VISUALSTYLE
  5
34
102
{ACAD_REACTORS
330
2A
102
}
330
2A
100
AcDbVisualStyle
  2
Conceptual
 70
     9
 71
     3
 72
     2
 73
     0
 90
        0
 40
-0.6
 41
-30.0
 62
     5
 63
     7
421
 16777215
 74
     2
 91
        2
 64
     7
 65
   257
 75
     1
175
     1
 42
40.0
 92
        8
 66
     7
 43
1.0
 76
     1
 77
     6
 78
     2
 67
     7
 79
     3
170
     0
171
     0
290
     0
174
     0
 93
        1
 44
0.0
173
     0
291
     0
 45
0.0
  0
VISUALSTYLE
  5
35
102
{ACAD_REACTORS
330
2A
102
}
330
2A
100
AcDbVisualStyle
  2
Dim
 70
    11
 71
     2
 72
     2
 73
     0
 90
        0
 40
-0.6
 41
-30.0
 62
     5
 63
     7
421
 16777215
 74
     1
 91
        4
 64
     7
 65
   257
 75
     1
175
     1
 42
1.0
 92
        8
 66
     7
 43
1.0
 76
     1
 77
     6
 78
     2
 67
     7
 79
     5
170
     0
171
     0
290
     0
174
     0
 93
        1
 44
-50.0
173
     0
291
     1
 45
0.0
  0
VISUALSTYLE
  5
39
102
{ACAD_REACTORS
330
2A
102
}
330
2A
100
AcDbVisualStyle
  2
Facepattern
 70
    15
 71
     2
 72
     2
 73
     0
 90
        0
 40
-0.6
 41
-30.0
 62
     5
 63
     7
421
 16777215
 74
     1
 91
        4
 64
     7
 65
   257
 75
     1
175
     1
 42
1.0
 92
        8
 66
     7
 43
1.0
 76
     1
 77
     6
 78
     2
 67
     7
 79
     5
170
     0
171
     0
290
     0
174
     0
 93
        1
 44
0.0
173
     0
291
     1
 45
0.0
  0
VISUALSTYLE
  5
2B
102
{ACAD_REACTORS
330
2A
102
}
330
2A
100
AcDbVisualStyle
  2
Flat
 70
     0
 71
     2
 72
     1
 73
     1
 90
        2
 40
-0.6
 41
30.0
 62
     5
 63
     7
421
 16777215
 74
     0
 91
        4
 64
     7
 65
   257
 75
     1
175
     1
 42
1.0
 92
        8
 66
     7
 43
1.0
 76
     1
 77
     6
 78
     2
 67
     7
 79
     5
170
     0
171
     0
290
     0
174
     0
 93
       13
 44
0.0
173
     0
291
     1
 45
0.0
  0
VISUALSTYLE
  5
2C
102
{ACAD_REACTORS
330
2A
102
}
330
2A
100
AcDbVisualStyle
  2
FlatWithEdges
 70
     1
 71
     2
 72
     1
 73
     1
 90
        2
 40
-0.6
 41
30.0
 62
     5
 63
     7
421
 16777215
 74
     1
 91
        4
 64
     7
 65
   257
 75
     1
175
     1
 42
1.0
 92
        0
 66
   257
 43
1.0
 76
     1
 77
     6
 78
     2
 67
     7
 79
     5
170
     0
171
     0
290
     0
174
     0
 93
       13
 44
0.0
173
     0
291
     1
 45
0.0
  0
VISUALSTYLE
  5
2D
102
{ACAD_REACTORS
330
2A
102
}
330
2A
100
AcDbVisualStyle
  2
Gouraud
 70
     2
 71
     2
 72
     2
 73
     1
 90
        2
 40
-0.6
 41
30.0
 62
     5
 63
     7
421
 16777215
 74
     0
 91
        4
 64
     7
 65
   257
 75
     1
175
     1
 42
1.0
 92
        0
 66
     7
 43
1.0
 76
     1
 77
     6
 78
     2
 67
     7
 79
     5
170
     0
171
     0
290
     0
174
     0
 93
       13
 44
0.0
173
     0
291
     1
 45
0.0
  0
VISUALSTYLE
  5
2E
102
{ACAD_REACTORS
330
2A
102
}
330
2A
100
AcDbVisualStyle
  2
GouraudWithEdges
 70
     3
 71
     2
 72
     2
 73
     1
 90
        2
 40
-0.6
 41
30.0
 62
     5
 63
     7
421
 16777215
 74
     1
 91
        4
 64
     7
 65
   257
 75
     1
175
     1
 42
1.0
 92
        0
 66
   257
 43
1.0
 76
     1
 77
     6
 78
     2
 67
     7
 79
     5
170
     0
171
     0
290
     0
174
     0
 93
       13
 44
0.0
173
     0
291
     1
 45
0.0
  0
VISUALSTYLE
  5
38
102
{ACAD_REACTORS
330
2A
102
}
330
2A
100
AcDbVisualStyle
  2
Linepattern
 70
    14
 71
     2
 72
     2
 73
     0
 90
        0
 40
-0.6
 41
-30.0
 62
     5
 63
     7
421
 16777215
 74
     1
 91
        4
 64
     7
 65
   257
 75
     7
175
     7
 42
1.0
 92
        8
 66
     7
 43
1.0
 76
     1
 77
     6
 78
     2
 67
     7
 79
     5
170
     0
171
     0
290
     0
174
     0
 93
        1
 44
0.0
173
     0
291
     1
 45
0.0
  0
VISUALSTYLE
  5
33
102
{ACAD_REACTORS
330
2A
102
}
330
2A
100
AcDbVisualStyle
  2
Realistic
 70
     8
 71
     2
 72
     2
 73
     0
 90
        0
 40
-0.6
 41
-30.0
 62
     5
 63
     7
421
 16777215
 74
     1
 91
        0
 64
     7
 65
   257
 75
     1
175
     1
 42
1.0
 92
        8
 66
     8
424
  7895160
 43
1.0
 76
     1
 77
     6
 78
     2
 67
     7
 79
     5
170
     0
171
     0
290
     0
174
     0
 93
       13
 44
0.0
173
     0
291
     0
 45
0.0
  0
VISUALSTYLE
  5
37
102
{ACAD_REACTORS
330
2A
102
}
330
2A
100
AcDbVisualStyle
  2
Thicken
 70
    13
 71
     2
 72
     2
 73
     0
 90
        0
 40
-0.6
 41
-30.0
 62
     5
 63
     7
421
 16777215
 74
     1
 91
        4
 64
     7
 65
   257
 75
     1
175
     1
 42
1.0
 92
       12
 66
     7
 43
1.0
 76
     1
 77
     6
 78
     2
 67
     7
 79
     5
170
     0
171
     0
290
     0
174
     0
 93
        1
 44
0.0
173
     0
291
     1
 45
0.0
  0
ENDSEC
  0
EOF
