  0
SECTION
  2
HEADER
  9
$ACADVER
  1
AC1021
  9
$ACADMAINTVER
 70
    25
  9
$DWGCODEPAGE
  3
ANSI_1252
  9
$INSBASE
 10
0.0
 20
0.0
 30
0.0
  9
$EXTMIN
 10
1512.211875045969
 20
1415.559456467673
 30
0.0
  9
$EXTMAX
 10
1833.334294586783
 20
1616.933693005523
 30
0.0
  9
$LIMMIN
 10
0.0
 20
0.0
  9
$LIMMAX
 10
12.0
 20
9.0
  9
$ORTHOMODE
 70
     0
  9
$REGENMODE
 70
     1
  9
$FILLMODE
 70
     1
  9
$QTEXTMODE
 70
     0
  9
$MIRRTEXT
 70
     1
  9
$LTSCALE
 40
1.0
  9
$ATTMODE
 70
     1
  9
$TEXTSIZE
 40
0.2
  9
$TRACEWID
 40
0.05
  9
$TEXTSTYLE
  7
Standard
  9
$CLAYER
  8
0
  9
$CELTYPE
  6
ByLayer
  9
$CECOLOR
 62
   256
  9
$CELTSCALE
 40
1.0
  9
$DISPSILH
 70
     0
  9
$DIMSCALE
 40
1.0
  9
$DIMASZ
 40
0.18
  9
$DIMEXO
 40
0.0625
  9
$DIMDLI
 40
0.38
  9
$DIMRND
 40
0.0
  9
$DIMDLE
 40
0.0
  9
$DIMEXE
 40
0.18
  9
$DIMTP
 40
0.0
  9
$DIMTM
 40
0.0
  9
$DIMTXT
 40
0.18
  9
$DIMCEN
 40
0.09
  9
$DIMTSZ
 40
0.0
  9
$DIMTOL
 70
     0
  9
$DIMLIM
 70
     0
  9
$DIMTIH
 70
     1
  9
$DIMTOH
 70
     1
  9
$DIMSE1
 70
     0
  9
$DIMSE2
 70
     0
  9
$DIMTAD
 70
     0
  9
$DIMZIN
 70
     0
  9
$DIMBLK
  1

  9
$DIMASO
 70
     1
  9
$DIMSHO
 70
     1
  9
$DIMPOST
  1

  9
$DIMAPOST
  1

  9
$DIMALT
 70
     0
  9
$DIMALTD
 70
     2
  9
$DIMALTF
 40
25.4
  9
$DIMLFAC
 40
1.0
  9
$DIMTOFL
 70
     0
  9
$DIMTVP
 40
0.0
  9
$DIMTIX
 70
     0
  9
$DIMSOXD
 70
     0
  9
$DIMSAH
 70
     0
  9
$DIMBLK1
  1

  9
$DIMBLK2
  1

  9
$DIMSTYLE
  2
Standard
  9
$DIMCLRD
 70
     0
  9
$DIMCLRE
 70
     0
  9
$DIMCLRT
 70
     0
  9
$DIMTFAC
 40
1.0
  9
$DIMGAP
 40
0.09
  9
$DIMJUST
 70
     0
  9
$DIMSD1
 70
     0
  9
$DIMSD2
 70
     0
  9
$DIMTOLJ
 70
     1
  9
$DIMTZIN
 70
     0
  9
$DIMALTZ
 70
     0
  9
$DIMALTTZ
 70
     0
  9
$DIMUPT
 70
     0
  9
$DIMDEC
 70
     4
  9
$DIMTDEC
 70
     4
  9
$DIMALTU
 70
     2
  9
$DIMALTTD
 70
     2
  9
$DIMTXSTY
  7
Standard
  9
$DIMAUNIT
 70
     0
  9
$DIMADEC
 70
     0
  9
$DIMALTRND
 40
0.0
  9
$DIMAZIN
 70
     0
  9
$DIMDSEP
 70
    46
  9
$DIMATFIT
 70
     3
  9
$DIMFRAC
 70
     0
  9
$DIMLDRBLK
  1

  9
$DIMLUNIT
 70
     2
  9
$DIMLWD
 70
    -2
  9
$DIMLWE
 70
    -2
  9
$DIMTMOVE
 70
     0
  9
$DIMFXL
 40
1.0
  9
$DIMFXLON
 70
     0
  9
$DIMJOGANG
 40
0.78539816339745
  9
$DIMTFILL
 70
     0
  9
$DIMTFILLCLR
 70
     0
  9
$DIMARCSYM
 70
     0
  9
$DIMLTYPE
  6

  9
$DIMLTEX1
  6

  9
$DIMLTEX2
  6

  9
$LUNITS
 70
     2
  9
$LUPREC
 70
     4
  9
$SKETCHINC
 40
0.1
  9
$FILLETRAD
 40
0.5
  9
$AUNITS
 70
     0
  9
$AUPREC
 70
     0
  9
$MENU
  1
.
  9
$ELEVATION
 40
0.0
  9
$PELEVATION
 40
0.0
  9
$THICKNESS
 40
0.0
  9
$LIMCHECK
 70
     0
  9
$CHAMFERA
 40
0.5
  9
$CHAMFERB
 40
0.5
  9
$CHAMFERC
 40
1.0
  9
$CHAMFERD
 40
0.0
  9
$SKPOLY
 70
     0
  9
$TDCREATE
 40
2456100.654172662
  9
$TDUCREATE
 40
2456100.279172662
  9
$TDUPDATE
 40
2456100.654172674
  9
$TDUUPDATE
 40
2456100.279172674
  9
$TDINDWG
 40
0.0000000116
  9
$TDUSRTIMER
 40
0.0000000116
  9
$USRTIMER
 70
     1
  9
$ANGBASE
 50
0.0
  9
$ANGDIR
 70
     0
  9
$PDMODE
 70
     0
  9
$PDSIZE
 40
0.0
  9
$PLINEWID
 40
0.0
  9
$SPLFRAME
 70
     0
  9
$SPLINETYPE
 70
     6
  9
$SPLINESEGS
 70
     8
  9
$HANDSEED
  5
251
  9
$SURFTAB1
 70
     6
  9
$SURFTAB2
 70
     6
  9
$SURFTYPE
 70
     6
  9
$SURFU
 70
     6
  9
$SURFV
 70
     6
  9
$UCSBASE
  2

  9
$UCSNAME
  2

  9
$UCSORG
 10
0.0
 20
0.0
 30
0.0
  9
$UCSXDIR
 10
1.0
 20
0.0
 30
0.0
  9
$UCSYDIR
 10
0.0
 20
1.0
 30
0.0
  9
$UCSORTHOREF
  2

  9
$UCSORTHOVIEW
 70
     0
  9
$UCSORGTOP
 10
0.0
 20
0.0
 30
0.0
  9
$UCSORGBOTTOM
 10
0.0
 20
0.0
 30
0.0
  9
$UCSORGLEFT
 10
0.0
 20
0.0
 30
0.0
  9
$UCSORGRIGHT
 10
0.0
 20
0.0
 30
0.0
  9
$UCSORGFRONT
 10
0.0
 20
0.0
 30
0.0
  9
$UCSORGBACK
 10
0.0
 20
0.0
 30
0.0
  9
$PUCSBASE
  2

  9
$PUCSNAME
  2

  9
$PUCSORG
 10
0.0
 20
0.0
 30
0.0
  9
$PUCSXDIR
 10
1.0
 20
0.0
 30
0.0
  9
$PUCSYDIR
 10
0.0
 20
1.0
 30
0.0
  9
$PUCSORTHOREF
  2

  9
$PUCSORTHOVIEW
 70
     0
  9
$PUCSORGTOP
 10
0.0
 20
0.0
 30
0.0
  9
$PUCSORGBOTTOM
 10
0.0
 20
0.0
 30
0.0
  9
$PUCSORGLEFT
 10
0.0
 20
0.0
 30
0.0
  9
$PUCSORGRIGHT
 10
0.0
 20
0.0
 30
0.0
  9
$PUCSORGFRONT
 10
0.0
 20
0.0
 30
0.0
  9
$PUCSORGBACK
 10
0.0
 20
0.0
 30
0.0
  9
$USERI1
 70
     0
  9
$USERI2
 70
     0
  9
$USERI3
 70
     0
  9
$USERI4
 70
     0
  9
$USERI5
 70
     0
  9
$USERR1
 40
16.0
  9
$USERR2
 40
0.0
  9
$USERR3
 40
0.0
  9
$USERR4
 40
0.0
  9
$USERR5
 40
0.0
  9
$WORLDVIEW
 70
     1
  9
$SHADEDGE
 70
     3
  9
$SHADEDIF
 70
    70
  9
$TILEMODE
 70
     1
  9
$MAXACTVP
 70
    64
  9
$PINSBASE
 10
0.0
 20
0.0
 30
0.0
  9
$PLIMCHECK
 70
     0
  9
$PEXTMIN
 10
1.00000000000000E+20
 20
1.00000000000000E+20
 30
1.00000000000000E+20
  9
$PEXTMAX
 10
-1.00000000000000E+20
 20
-1.00000000000000E+20
 30
-1.00000000000000E+20
  9
$PLIMMIN
 10
0.0
 20
0.0
  9
$PLIMMAX
 10
12.0
 20
9.0
  9
$UNITMODE
 70
     0
  9
$VISRETAIN
 70
     1
  9
$PLINEGEN
 70
     0
  9
$PSLTSCALE
 70
     1
  9
$TREEDEPTH
 70
  3020
  9
$CMLSTYLE
  2
Standard
  9
$CMLJUST
 70
     0
  9
$CMLSCALE
 40
1.0
  9
$PROXYGRAPHICS
 70
     1
  9
$MEASUREMENT
 70
     1
  9
$CELWEIGHT
370
    -1
  9
$ENDCAPS
280
     0
  9
$JOINSTYLE
280
     0
  9
$LWDISPLAY
290
     0
  9
$INSUNITS
 70
     1
  9
$HYPERLINKBASE
  1

  9
$STYLESHEET
  1

  9
$XEDIT
290
     1
  9
$CEPSNTYPE
380
     0
  9
$PSTYLEMODE
290
     1
  9
$FINGERPRINTGUID
  2
{23D43B45-29FB-49BE-9132-5ED7E9131BC8}
  9
$VERSIONGUID
  2
{FAEB1C32-E019-11D5-929B-00C0DF256EC4}
  9
$EXTNAMES
290
     1
  9
$PSVPSCALE
 40
0.0
  9
$OLESTARTUP
290
     0
  9
$SORTENTS
280
   127
  9
$INDEXCTL
280
     0
  9
$HIDETEXT
280
     1
  9
$XCLIPFRAME
290
     0
  9
$HALOGAP
280
     0
  9
$OBSCOLOR
 70
   257
  9
$OBSLTYPE
280
     0
  9
$INTERSECTIONDISPLAY
280
     0
  9
$INTERSECTIONCOLOR
 70
   257
  9
$DIMASSOC
280
     2
  9
$PROJECTNAME
  1

  9
$CAMERADISPLAY
290
     0
  9
$LENSLENGTH
 40
50.0
  9
$CAMERAHEIGHT
 40
0.0
  9
$STEPSPERSEC
 40
2.0
  9
$STEPSIZE
 40
6.0
  9
$3DDWFPREC
 40
2.0
  9
$PSOLWIDTH
 40
0.25
  9
$PSOLHEIGHT
 40
4.0
  9
$LOFTANG1
 40
1.5707963267949
  9
$LOFTANG2
 40
1.5707963267949
  9
$LOFTMAG1
 40
0.0
  9
$LOFTMAG2
 40
0.0
  9
$LOFTPARAM
 70
     7
  9
$LOFTNORMALS
280
     1
  9
$LATITUDE
 40
37.795
  9
$LONGITUDE
 40
-122.394
  9
$NORTHDIRECTION
 40
0.0
  9
$TIMEZONE
 70
 -8000
  9
$LIGHTGLYPHDISPLAY
280
     1
  9
$TILEMODELIGHTSYNCH
280
     1
  9
$SOLIDHIST
280
     1
  9
$SHOWHIST
280
     1
  9
$DWFFRAME
280
     2
  9
$DGNFRAME
280
     2
  9
$REALWORLDSCALE
290
     1
  9
$INTERFERECOLOR
 62
   256
  9
$CSHADOW
280
     0
  9
$SHADOWPLANELOCATION
 40
0.0
  0
ENDSEC
  0
SECTION
  2
CLASSES
  0
CLASS
  1
ACDBDICTIONARYWDFLT
  2
AcDbDictionaryWithDefault
  3
ObjectDBX Classes
 90
        0
 91
        4
280
     0
281
     0
  0
CLASS
  1
VISUALSTYLE
  2
AcDbVisualStyle
  3
ObjectDBX Classes
 90
     4095
 91
        4
280
     0
281
     0
  0
CLASS
  1

  2
exOdDbCircle
  3

 90
        0
 91
        4
280
     0
281
     1
  0
ENDSEC
  0
SECTION
  2
TABLES
  0
TABLE
  2
VPORT
  5
8
330
0
100
AcDbSymbolTable
 70
     1
  0
VPORT
  5
29
330
8
100
AcDbSymbolTableRecord
100
AcDbViewportTableRecord
  2
*Active
 70
     0
 10
0.0
 20
0.0
 11
1.0
 21
1.0
 12
1672.773084816376
 22
1516.246574736598
 13
0.0
 23
0.0
 14
0.5
 24
0.5
 15
0.5
 25
0.5
 16
0.0
 26
0.0
 36
1.0
 17
0.0
 27
0.0
 37
0.0
 40
221.5116601916351
 41
1.60267857142857
 42
50.0
 43
0.0
 44
0.0
 50
0.0
 51
0.0
 71
     0
 72
   100
 73
     1
 74
     3
 75
     0
 76
     0
 77
     0
 78
     0
281
     0
 65
     1
110
0.0
120
0.0
130
0.0
111
1.0
121
0.0
131
0.0
112
0.0
122
1.0
132
0.0
 79
     0
146
0.0
 60
     3
 61
     5
292
     1
282
     1
141
0.0
142
0.0
 63
   256
  0
ENDTAB
  0
TABLE
  2
LTYPE
  5
5
330
0
100
AcDbSymbolTable
 70
     8
  0
LTYPE
  5
14
330
5
100
AcDbSymbolTableRecord
100
AcDbLinetypeTableRecord
  2
ByBlock
 70
     0
  3

 72
    65
 73
     0
 40
0.0
  0
LTYPE
  5
15
330
5
100
AcDbSymbolTableRecord
100
AcDbLinetypeTableRecord
  2
ByLayer
 70
     0
  3

 72
    65
 73
     0
 40
0.0
  0
LTYPE
  5
16
330
5
100
AcDbSymbolTableRecord
100
AcDbLinetypeTableRecord
  2
Continuous
 70
     0
  3
Solid line
 72
    65
 73
     0
 40
0.0
  0
LTYPE
  5
3B
330
5
100
AcDbSymbolTableRecord
100
AcDbLinetypeTableRecord
  2
DASHED
 70
     0
  3
Dashed
 72
    65
 73
     2
 40
15.0
 49
7.0
 74
     0
 49
-8.0
 74
     0
  0
LTYPE
  5
3C
330
5
100
AcDbSymbolTableRecord
100
AcDbLinetypeTableRecord
  2
DOTTED
 70
     0
  3
Dotted
 72
    65
 73
     2
 40
1.0
 49
0.0
 74
     0
 49
-1.0
 74
     0
  0
LTYPE
  5
3D
330
5
100
AcDbSymbolTableRecord
100
AcDbLinetypeTableRecord
  2
DOT_CENTER
 70
     0
  3
Dot_Center
 72
    65
 73
     4
 40
14.0
 49
12.0
 74
     0
 49
-1.0
 74
     0
 49
0.0
 74
     0
 49
-1.0
 74
     0
  0
LTYPE
  5
3E
330
5
100
AcDbSymbolTableRecord
100
AcDbLinetypeTableRecord
  2
LONG_DASHED
 70
     0
  3
Long_Dashed
 72
    65
 73
     2
 40
15.0
 49
10.0
 74
     0
 49
-5.0
 74
     0
  0
LTYPE
  5
3F
330
5
100
AcDbSymbolTableRecord
100
AcDbLinetypeTableRecord
  2
DASH_CENTER
 70
     0
  3
Dash_Center
 72
    65
 73
     4
 40
14.0
 49
11.0
 74
     0
 49
-1.0
 74
     0
 49
1.0
 74
     0
 49
-1.0
 74
     0
  0
LTYPE
  5
40
330
5
100
AcDbSymbolTableRecord
100
AcDbLinetypeTableRecord
  2
PHANTOM
 70
     0
  3
Phantom
 72
    65
 73
     6
 40
13.0
 49
10.0
 74
     0
 49
-1.0
 74
     0
 49
0.0
 74
     0
 49
-1.0
 74
     0
 49
0.0
 74
     0
 49
-1.0
 74
     0
  0
LTYPE
  5
41
330
5
100
AcDbSymbolTableRecord
100
AcDbLinetypeTableRecord
  2
CENTER_DASH_DASH
 70
     0
  3
Center_Dash_Dash
 72
    65
 73
     6
 40
14.0
 49
9.0
 74
     0
 49
-1.0
 74
     0
 49
1.0
 74
     0
 49
-1.0
 74
     0
 49
1.0
 74
     0
 49
-1.0
 74
     0
  0
ENDTAB
  0
TABLE
  2
LAYER
  5
2
330
0
100
AcDbSymbolTable
 70
     3
  0
LAYER
  5
10
330
2
100
AcDbSymbolTableRecord
100
AcDbLayerTableRecord
  2
0
 70
     0
 62
     7
  6
Continuous
370
    -3
390
F
347
0
  0
LAYER
  5
42
330
2
100
AcDbSymbolTableRecord
100
AcDbLayerTableRecord
  2
1
 70
     0
 62
     7
  6
Continuous
370
    -3
390
F
347
0
  0
LAYER
  5
43
330
2
100
AcDbSymbolTableRecord
100
AcDbLayerTableRecord
  2
2
 70
     0
 62
     7
  6
Continuous
370
    -3
390
F
347
0
  0
ENDTAB
  0
TABLE
  2
STYLE
  5
3
330
0
100
AcDbSymbolTable
 70
     1
  0
STYLE
  5
11
330
3
100
AcDbSymbolTableRecord
100
AcDbTextStyleTableRecord
  2
Standard
 70
     0
 40
0.0
 41
1.0
 50
0.0
 71
     0
 42
0.2
  3
txt
  4

  0
ENDTAB
  0
TABLE
  2
VIEW
  5
6
330
0
100
AcDbSymbolTable
 70
     0
  0
ENDTAB
  0
TABLE
  2
UCS
  5
7
330
0
100
AcDbSymbolTable
 70
     0
  0
ENDTAB
  0
TABLE
  2
APPID
  5
9
330
0
100
AcDbSymbolTable
 70
     1
  0
APPID
  5
12
330
9
100
AcDbSymbolTableRecord
100
AcDbRegAppTableRecord
  2
ACAD
 70
     0
  0
ENDTAB
  0
TABLE
  2
DIMSTYLE
  5
A
330
0
100
AcDbSymbolTable
 70
     1
100
AcDbDimStyleTable
  0
DIMSTYLE
105
27
330
A
100
AcDbSymbolTableRecord
100
AcDbDimStyleTableRecord
  2
Standard
 70
     0
340
11
  0
ENDTAB
  0
TABLE
  2
BLOCK_RECORD
  5
1
330
0
100
AcDbSymbolTable
 70
     5
  0
BLOCK_RECORD
  5
1F
330
1
100
AcDbSymbolTableRecord
100
AcDbBlockTableRecord
  2
*Model_Space
340
22
 70
     0
280
     1
281
     0
  0
BLOCK_RECORD
  5
1B
330
1
100
AcDbSymbolTableRecord
100
AcDbBlockTableRecord
  2
*Paper_Space
340
1E
 70
     0
280
     1
281
     0
  0
BLOCK_RECORD
  5
23
330
1
100
AcDbSymbolTableRecord
100
AcDbBlockTableRecord
  2
*Paper_Space0
340
26
 70
     0
280
     1
281
     0
  0
BLOCK_RECORD
  5
44
330
1
100
AcDbSymbolTableRecord
100
AcDbBlockTableRecord
  2
NEW_WAKU_A3
340
0
102
{BLKREFS
331
48
102
}
 70
     0
280
     1
281
     0
  0
BLOCK_RECORD
  5
47
330
1
100
AcDbSymbolTableRecord
100
AcDbBlockTableRecord
  2
G-KEM6000NT-A000A__1
340
0
102
{BLKREFS
331
4C
102
}
 70
     0
280
     1
281
     0
  0
BLOCK_RECORD
  5
4B
330
1
100
AcDbSymbolTableRecord
100
AcDbBlockTableRecord
  2
G-KEM6000NT-A000A__2
340
0
102
{BLKREFS
331
50
102
}
 70
     0
280
     1
281
     0
  0
BLOCK_RECORD
  5
4F
330
1
100
AcDbSymbolTableRecord
100
AcDbBlockTableRecord
  2
G-KEM6000N-A080A
340
0
102
{BLKREFS
331
53
102
}
 70
     0
280
     1
281
     0
  0
ENDTAB
  0
ENDSEC
  0
SECTION
  2
BLOCKS
  0
BLOCK
  5
20
330
1F
100
AcDbEntity
  8
0
100
AcDbBlockBegin
  2
*Model_Space
 70
     0
 10
0.0
 20
0.0
 30
0.0
  3
*Model_Space
  1

  0
ENDBLK
  5
21
330
1F
100
AcDbEntity
  8
0
100
AcDbBlockEnd
  0
BLOCK
  5
1C
330
1B
100
AcDbEntity
 67
     1
  8
0
100
AcDbBlockBegin
  2
*Paper_Space
 70
     0
 10
0.0
 20
0.0
 30
0.0
  3
*Paper_Space
  1

  0
ENDBLK
  5
1D
330
1B
100
AcDbEntity
 67
     1
  8
0
100
AcDbBlockEnd
  0
BLOCK
  5
24
330
23
100
AcDbEntity
  8
0
100
AcDbBlockBegin
  2
*Paper_Space0
 70
     0
 10
0.0
 20
0.0
 30
0.0
  3
*Paper_Space0
  1

  0
ENDBLK
  5
25
330
23
100
AcDbEntity
  8
0
100
AcDbBlockEnd
  0
BLOCK
  5
45
330
44
100
AcDbEntity
  8
0
100
AcDbBlockBegin
  2
NEW_WAKU_A3
 70
     0
 10
806.158377059385
 20
975.87357462559
 30
0.0
  3
NEW_WAKU_A3
  1

  0
POINT
  5
54
330
44
100
AcDbEntity
  8
1
 62
     7
100
AcDbPoint
 10
899.44663803599
 20
1234.45370188979
 30
0.0
  0
POINT
  5
55
330
44
100
AcDbEntity
  8
1
 62
     7
100
AcDbPoint
 10
930.982171941924
 20
1089.70370188979
 30
0.0
  0
POINT
  5
56
330
44
100
AcDbEntity
  8
1
 62
     7
100
AcDbPoint
 10
932.732171941922
 20
1091.95370188978
 30
0.0
  0
POINT
  5
57
330
44
100
AcDbEntity
  8
1
 62
     7
100
AcDbPoint
 10
930.982171941924
 20
1089.70370188979
 30
0.0
  0
POINT
  5
58
330
44
100
AcDbEntity
  8
1
 62
     7
100
AcDbPoint
 10
930.982171941924
 20
1089.70370188979
 30
0.0
  0
POINT
  5
59
330
44
100
AcDbEntity
  8
1
 62
     7
100
AcDbPoint
 10
936.361718226605
 20
1226.45370188979
 30
0.0
  0
POINT
  5
5A
330
44
100
AcDbEntity
  8
1
 62
     7
100
AcDbPoint
 10
932.732171941922
 20
1091.95370188978
 30
0.0
  0
POINT
  5
5B
330
44
100
AcDbEntity
  8
1
 62
     7
100
AcDbPoint
 10
936.361718226605
 20
1226.45370188979
 30
0.0
  0
POINT
  5
5C
330
44
100
AcDbEntity
  8
1
 62
     7
100
AcDbPoint
 10
845.732171938876
 20
1140.95370188978
 30
0.0
  0
POINT
  5
5D
330
44
100
AcDbEntity
  8
1
 62
     7
100
AcDbPoint
 10
946.232171944972
 20
1140.95370188978
 30
0.0
  0
POINT
  5
5E
330
44
100
AcDbEntity
  8
1
 62
     7
100
AcDbPoint
 10
1146.60459147969
 20
1101.00602815053
 30
0.0
  0
POINT
  5
5F
330
44
100
AcDbEntity
  8
1
 62
     7
100
AcDbPoint
 10
1086.6045914797
 20
1101.00602815053
 30
0.0
  0
POINT
  5
60
330
44
100
AcDbEntity
  8
1
 62
     7
100
AcDbPoint
 10
1118.85662923191
 20
1220.95370188979
 30
0.0
  0
POINT
  5
61
330
44
100
AcDbEntity
  8
1
 62
     7
100
AcDbPoint
 10
895.982171941924
 20
1058.82946535194
 30
0.0
  0
POINT
  5
62
330
44
100
AcDbEntity
  8
1
 62
     7
100
AcDbPoint
 10
946.23217194191
 20
1034.57946535194
 30
0.0
  0
POINT
  5
63
330
44
100
AcDbEntity
  8
1
 62
     7
100
AcDbPoint
 10
946.23217194191
 20
1034.57946535194
 30
0.0
  0
POINT
  5
64
330
44
100
AcDbEntity
  8
1
 62
     7
100
AcDbPoint
 10
928.482171941921
 20
1033.07946535194
 30
0.0
  0
POINT
  5
65
330
44
100
AcDbEntity
  8
0
 62
     7
100
AcDbPoint
 10
1077.6045914797
 20
1099.44234264278
 30
0.0
  0
POINT
  5
66
330
44
100
AcDbEntity
  8
0
 62
     7
100
AcDbPoint
 10
1155.6045914797
 20
1099.44234264278
 30
0.0
  0
POINT
  5
67
330
44
100
AcDbEntity
  8
0
 62
     7
100
AcDbPoint
 10
1072.78902572992
 20
1152.70370188979
 30
0.0
  0
POINT
  5
68
330
44
100
AcDbEntity
  8
0
 62
     7
100
AcDbPoint
 10
1104.80153917801
 20
1152.70370188979
 30
0.0
  0
LINE
  5
69
330
44
100
AcDbEntity
  8
1
  6
Continuous
 62
     7
100
AcDbLine
 10
855.982171941924
 20
1143.70370188978
 30
0.0
 11
857.982171941924
 21
1143.70370188978
 31
0.0
  0
LINE
  5
6A
330
44
100
AcDbEntity
  8
1
  6
DASHED
 62
     7
100
AcDbLine
 10
897.232171941594
 20
1230.95370189051
 30
0.0
 11
897.232171941594
 21
1230.51495139011
 31
0.0
  0
LINE
  5
6B
330
44
100
AcDbEntity
  8
1
  6
DASHED
 62
     7
100
AcDbLine
 10
894.732171941594
 20
1230.95370189051
 30
0.0
 11
894.732171941594
 21
1230.51495139011
 31
0.0
  0
LINE
  5
6C
330
44
100
AcDbEntity
  8
1
  6
DASHED
 62
     7
100
AcDbLine
 10
892.517705847856
 20
1234.45370188979
 30
0.0
 11
899.44663803599
 21
1234.45370188979
 31
0.0
  0
LINE
  5
6D
330
44
100
AcDbEntity
  8
1
  6
DASHED
 62
     7
100
AcDbLine
 10
901.214404988957
 20
1233.72146884275
 30
0.0
 11
907.74993889489
 21
1227.18593493682
 31
0.0
  0
LINE
  5
6E
330
44
100
AcDbEntity
  8
1
  6
DASHED
 62
     7
100
AcDbLine
 10
884.214404988957
 20
1227.18593493682
 30
0.0
 11
890.749938894889
 21
1233.72146884275
 31
0.0
  0
LINE
  5
6F
330
44
100
AcDbEntity
  8
1
  6
DASHED
 62
     7
100
AcDbLine
 10
1035.7579051797
 20
1226.45370188979
 30
0.0
 11
1035.7579051797
 21
1234.45370188906
 31
0.0
  0
LINE
  5
70
330
44
100
AcDbEntity
  8
1
  6
DASHED
 62
     7
100
AcDbLine
 10
1034.9579051797
 20
1226.45370188979
 30
0.0
 11
1034.9579051797
 21
1234.45370188906
 31
0.0
  0
LINE
  5
71
330
44
100
AcDbEntity
  8
1
  6
DASHED
 62
     7
100
AcDbLine
 10
1035.7579051797
 20
1234.45370188906
 30
0.0
 11
1034.9579051797
 21
1234.45370188906
 31
0.0
  0
LINE
  5
72
330
44
100
AcDbEntity
  8
1
  6
DASHED
 62
     7
100
AcDbLine
 10
1104.1045914797
 20
1215.41816798385
 30
0.0
 11
1104.1045914797
 21
1225.41816798385
 31
0.0
  0
LINE
  5
73
330
44
100
AcDbEntity
  8
1
  6
DASHED
 62
     7
100
AcDbLine
 10
1129.1045914797
 20
1215.41816798385
 30
0.0
 11
1129.1045914797
 21
1213.95370188979
 31
0.0
  0
LINE
  5
74
330
44
100
AcDbEntity
  8
1
  6
Continuous
 62
     7
100
AcDbLine
 10
1108.83792481303
 20
1210.12036855645
 30
0.0
 11
1109.37125814636
 21
1210.12036855645
 31
0.0
  0
LINE
  5
75
330
44
100
AcDbEntity
  8
1
  6
Continuous
 62
     7
100
AcDbLine
 10
1108.83792481303
 20
1209.55370188979
 30
0.0
 11
1108.83792481303
 21
1210.12036855645
 31
0.0
  0
LINE
  5
76
330
44
100
AcDbEntity
  8
1
  6
Continuous
 62
     7
100
AcDbLine
 10
1107.93792481303
 20
1209.22036855645
 30
0.0
 11
1108.5045914797
 21
1209.22036855645
 31
0.0
  0
LINE
  5
77
330
44
100
AcDbEntity
  8
1
  6
Continuous
 62
     7
100
AcDbLine
 10
1107.93792481303
 20
1208.68703522312
 30
0.0
 11
1107.93792481303
 21
1209.22036855645
 31
0.0
  0
LINE
  5
78
330
44
100
AcDbEntity
  8
1
  6
Continuous
 62
     7
100
AcDbLine
 10
1108.5045914797
 20
1208.68703522312
 30
0.0
 11
1107.93792481303
 21
1208.68703522312
 31
0.0
  0
LINE
  5
79
330
44
100
AcDbEntity
  8
1
  6
Continuous
 62
     7
100
AcDbLine
 10
1108.83792481303
 20
1207.78703522312
 30
0.0
 11
1108.83792481303
 21
1208.35370188979
 31
0.0
  0
LINE
  5
7A
330
44
100
AcDbEntity
  8
1
  6
Continuous
 62
     7
100
AcDbLine
 10
1109.37125814636
 20
1207.78703522312
 30
0.0
 11
1108.83792481303
 21
1207.78703522312
 31
0.0
  0
LINE
  5
7B
330
44
100
AcDbEntity
  8
1
  6
Continuous
 62
     7
100
AcDbLine
 10
1109.37125814636
 20
1208.35370188979
 30
0.0
 11
1109.37125814636
 21
1207.78703522312
 31
0.0
  0
LINE
  5
7C
330
44
100
AcDbEntity
  8
1
  6
Continuous
 62
     7
100
AcDbLine
 10
1110.27125814636
 20
1208.68703522312
 30
0.0
 11
1109.7045914797
 21
1208.68703522312
 31
0.0
  0
LINE
  5
7D
330
44
100
AcDbEntity
  8
1
  6
Continuous
 62
     7
100
AcDbLine
 10
1110.27125814636
 20
1209.22036855645
 30
0.0
 11
1110.27125814636
 21
1208.68703522312
 31
0.0
  0
LINE
  5
7E
330
44
100
AcDbEntity
  8
1
  6
Continuous
 62
     7
100
AcDbLine
 10
1109.7045914797
 20
1209.22036855645
 30
0.0
 11
1110.27125814636
 21
1209.22036855645
 31
0.0
  0
LINE
  5
7F
330
44
100
AcDbEntity
  8
1
  6
Continuous
 62
     7
100
AcDbLine
 10
1109.37125814636
 20
1210.12036855645
 30
0.0
 11
1109.37125814636
 21
1209.55370188979
 31
0.0
  0
LINE
  5
80
330
44
100
AcDbEntity
  8
1
  6
Continuous
 62
     7
100
AcDbLine
 10
1123.83792481303
 20
1210.12036855645
 30
0.0
 11
1124.37125814636
 21
1210.12036855645
 31
0.0
  0
LINE
  5
81
330
44
100
AcDbEntity
  8
1
  6
Continuous
 62
     7
100
AcDbLine
 10
1123.83792481303
 20
1209.55370188979
 30
0.0
 11
1123.83792481303
 21
1210.12036855645
 31
0.0
  0
LINE
  5
82
330
44
100
AcDbEntity
  8
1
  6
Continuous
 62
     7
100
AcDbLine
 10
1122.93792481303
 20
1209.22036855645
 30
0.0
 11
1123.5045914797
 21
1209.22036855645
 31
0.0
  0
LINE
  5
83
330
44
100
AcDbEntity
  8
1
  6
Continuous
 62
     7
100
AcDbLine
 10
1122.93792481303
 20
1208.68703522312
 30
0.0
 11
1122.93792481303
 21
1209.22036855645
 31
0.0
  0
LINE
  5
84
330
44
100
AcDbEntity
  8
1
  6
Continuous
 62
     7
100
AcDbLine
 10
1123.5045914797
 20
1208.68703522312
 30
0.0
 11
1122.93792481303
 21
1208.68703522312
 31
0.0
  0
LINE
  5
85
330
44
100
AcDbEntity
  8
1
  6
Continuous
 62
     7
100
AcDbLine
 10
1123.83792481303
 20
1207.78703522312
 30
0.0
 11
1123.83792481303
 21
1208.35370188979
 31
0.0
  0
LINE
  5
86
330
44
100
AcDbEntity
  8
1
  6
Continuous
 62
     7
100
AcDbLine
 10
1124.37125814636
 20
1207.78703522312
 30
0.0
 11
1123.83792481303
 21
1207.78703522312
 31
0.0
  0
LINE
  5
87
330
44
100
AcDbEntity
  8
1
  6
Continuous
 62
     7
100
AcDbLine
 10
1124.37125814636
 20
1208.35370188979
 30
0.0
 11
1124.37125814636
 21
1207.78703522312
 31
0.0
  0
LINE
  5
88
330
44
100
AcDbEntity
  8
1
  6
Continuous
 62
     7
100
AcDbLine
 10
1125.27125814636
 20
1208.68703522312
 30
0.0
 11
1124.7045914797
 21
1208.68703522312
 31
0.0
  0
LINE
  5
89
330
44
100
AcDbEntity
  8
1
  6
Continuous
 62
     7
100
AcDbLine
 10
1125.27125814636
 20
1209.22036855645
 30
0.0
 11
1125.27125814636
 21
1208.68703522312
 31
0.0
  0
LINE
  5
8A
330
44
100
AcDbEntity
  8
1
  6
Continuous
 62
     7
100
AcDbLine
 10
1124.7045914797
 20
1209.22036855645
 30
0.0
 11
1125.27125814636
 21
1209.22036855645
 31
0.0
  0
LINE
  5
8B
330
44
100
AcDbEntity
  8
1
  6
Continuous
 62
     7
100
AcDbLine
 10
1124.37125814636
 20
1210.12036855645
 30
0.0
 11
1124.37125814636
 21
1209.55370188979
 31
0.0
  0
LINE
  5
8C
330
44
100
AcDbEntity
  8
1
  6
Continuous
 62
     7
100
AcDbLine
 10
855.782799120013
 20
1104.07870188979
 30
0.0
 11
856.182799120013
 21
1104.07870188979
 31
0.0
  0
LINE
  5
8D
330
44
100
AcDbEntity
  8
1
  6
Continuous
 62
     7
100
AcDbLine
 10
856.182799120013
 20
1104.07870188979
 30
0.0
 11
856.182799120013
 21
1103.65370188979
 31
0.0
  0
LINE
  5
8E
330
44
100
AcDbEntity
  8
1
  6
Continuous
 62
     7
100
AcDbLine
 10
856.432799120013
 20
1103.40370188979
 30
0.0
 11
856.857799120013
 21
1103.40370188979
 31
0.0
  0
LINE
  5
8F
330
44
100
AcDbEntity
  8
1
  6
Continuous
 62
     7
100
AcDbLine
 10
856.857799120013
 20
1103.40370188979
 30
0.0
 11
856.857799120013
 21
1103.00370188978
 31
0.0
  0
LINE
  5
90
330
44
100
AcDbEntity
  8
1
  6
Continuous
 62
     7
100
AcDbLine
 10
856.857799120013
 20
1103.00370188978
 30
0.0
 11
856.432799120013
 21
1103.00370188978
 31
0.0
  0
LINE
  5
91
330
44
100
AcDbEntity
  8
1
  6
Continuous
 62
     7
100
AcDbLine
 10
856.182799120013
 20
1102.75370188978
 30
0.0
 11
856.182799120013
 21
1102.32870188979
 31
0.0
  0
LINE
  5
92
330
44
100
AcDbEntity
  8
1
  6
Continuous
 62
     7
100
AcDbLine
 10
856.182799120013
 20
1102.32870188979
 30
0.0
 11
855.782799120013
 21
1102.32870188979
 31
0.0
  0
LINE
  5
93
330
44
100
AcDbEntity
  8
1
  6
Continuous
 62
     7
100
AcDbLine
 10
855.782799120013
 20
1102.32870188979
 30
0.0
 11
855.782799120013
 21
1102.75370188978
 31
0.0
  0
LINE
  5
94
330
44
100
AcDbEntity
  8
1
  6
Continuous
 62
     7
100
AcDbLine
 10
855.532799120013
 20
1103.00370188978
 30
0.0
 11
855.107799120013
 21
1103.00370188978
 31
0.0
  0
LINE
  5
95
330
44
100
AcDbEntity
  8
1
  6
Continuous
 62
     7
100
AcDbLine
 10
855.107799120013
 20
1103.00370188978
 30
0.0
 11
855.107799120013
 21
1103.40370188979
 31
0.0
  0
LINE
  5
96
330
44
100
AcDbEntity
  8
1
  6
Continuous
 62
     7
100
AcDbLine
 10
855.107799120013
 20
1103.40370188979
 30
0.0
 11
855.532799120013
 21
1103.40370188979
 31
0.0
  0
LINE
  5
97
330
44
100
AcDbEntity
  8
1
  6
Continuous
 62
     7
100
AcDbLine
 10
855.782799120013
 20
1103.65370188979
 30
0.0
 11
855.782799120013
 21
1104.07870188979
 31
0.0
  0
LINE
  5
98
330
44
100
AcDbEntity
  8
1
  6
Continuous
 62
     7
100
AcDbLine
 10
935.781544763835
 20
1104.07870188979
 30
0.0
 11
936.181544763835
 21
1104.07870188979
 31
0.0
  0
LINE
  5
99
330
44
100
AcDbEntity
  8
1
  6
Continuous
 62
     7
100
AcDbLine
 10
935.781544763835
 20
1103.65370188979
 30
0.0
 11
935.781544763835
 21
1104.07870188979
 31
0.0
  0
LINE
  5
9A
330
44
100
AcDbEntity
  8
1
  6
Continuous
 62
     7
100
AcDbLine
 10
935.106544763835
 20
1103.40370188979
 30
0.0
 11
935.531544763835
 21
1103.40370188979
 31
0.0
  0
LINE
  5
9B
330
44
100
AcDbEntity
  8
1
  6
Continuous
 62
     7
100
AcDbLine
 10
935.106544763835
 20
1103.00370188978
 30
0.0
 11
935.106544763835
 21
1103.40370188979
 31
0.0
  0
LINE
  5
9C
330
44
100
AcDbEntity
  8
1
  6
Continuous
 62
     7
100
AcDbLine
 10
935.531544763835
 20
1103.00370188978
 30
0.0
 11
935.106544763835
 21
1103.00370188978
 31
0.0
  0
LINE
  5
9D
330
44
100
AcDbEntity
  8
1
  6
Continuous
 62
     7
100
AcDbLine
 10
935.781544763835
 20
1102.32870188979
 30
0.0
 11
935.781544763835
 21
1102.75370188978
 31
0.0
  0
LINE
  5
9E
330
44
100
AcDbEntity
  8
1
  6
Continuous
 62
     7
100
AcDbLine
 10
936.181544763835
 20
1102.32870188979
 30
0.0
 11
935.781544763835
 21
1102.32870188979
 31
0.0
  0
LINE
  5
9F
330
44
100
AcDbEntity
  8
1
  6
Continuous
 62
     7
100
AcDbLine
 10
936.181544763835
 20
1102.75370188978
 30
0.0
 11
936.181544763835
 21
1102.32870188979
 31
0.0
  0
LINE
  5
A0
330
44
100
AcDbEntity
  8
1
  6
Continuous
 62
     7
100
AcDbLine
 10
936.856544763835
 20
1103.00370188978
 30
0.0
 11
936.431544763835
 21
1103.00370188978
 31
0.0
  0
LINE
  5
A1
330
44
100
AcDbEntity
  8
1
  6
Continuous
 62
     7
100
AcDbLine
 10
936.856544763835
 20
1103.40370188979
 30
0.0
 11
936.856544763835
 21
1103.00370188978
 31
0.0
  0
LINE
  5
A2
330
44
100
AcDbEntity
  8
1
  6
Continuous
 62
     7
100
AcDbLine
 10
936.431544763835
 20
1103.40370188979
 30
0.0
 11
936.856544763835
 21
1103.40370188979
 31
0.0
  0
LINE
  5
A3
330
44
100
AcDbEntity
  8
1
  6
Continuous
 62
     7
100
AcDbLine
 10
936.181544763835
 20
1104.07870188979
 30
0.0
 11
936.181544763835
 21
1103.65370188979
 31
0.0
  0
LINE
  5
A4
330
44
100
AcDbEntity
  8
2
  6
Continuous
 62
     7
100
AcDbLine
 10
1086.6045914797
 20
1089.70370188979
 30
0.0
 11
1081.6045914797
 21
1089.70370188979
 31
0.0
  0
LINE
  5
A5
330
44
100
AcDbEntity
  8
2
  6
Continuous
 62
     7
100
AcDbLine
 10
1081.6045914797
 20
1089.70370188979
 30
0.0
 11
1081.6045914797
 21
1091.95370188978
 31
0.0
  0
LINE
  5
A6
330
44
100
AcDbEntity
  8
2
  6
Continuous
 62
     7
100
AcDbLine
 10
1091.6045914797
 20
1089.70370188979
 30
0.0
 11
1086.6045914797
 21
1089.70370188979
 31
0.0
  0
LINE
  5
A7
330
44
100
AcDbEntity
  8
2
  6
Continuous
 62
     7
100
AcDbLine
 10
1091.6045914797
 20
1091.95370188978
 30
0.0
 11
1091.6045914797
 21
1089.70370188979
 31
0.0
  0
LINE
  5
A8
330
44
100
AcDbEntity
  8
2
  6
Continuous
 62
     7
100
AcDbLine
 10
1101.6045914797
 20
1089.70370188979
 30
0.0
 11
1096.6045914797
 21
1089.70370188979
 31
0.0
  0
LINE
  5
A9
330
44
100
AcDbEntity
  8
2
  6
Continuous
 62
     7
100
AcDbLine
 10
1096.6045914797
 20
1089.70370188979
 30
0.0
 11
1096.6045914797
 21
1091.95370188978
 31
0.0
  0
LINE
  5
AA
330
44
100
AcDbEntity
  8
2
  6
Continuous
 62
     7
100
AcDbLine
 10
1101.6045914797
 20
1089.70370188979
 30
0.0
 11
1096.6045914797
 21
1089.70370188979
 31
0.0
  0
LINE
  5
AB
330
44
100
AcDbEntity
  8
2
  6
Continuous
 62
     7
100
AcDbLine
 10
1106.6045914797
 20
1089.70370188979
 30
0.0
 11
1101.6045914797
 21
1089.70370188979
 31
0.0
  0
LINE
  5
AC
330
44
100
AcDbEntity
  8
2
  6
Continuous
 62
     7
100
AcDbLine
 10
1106.6045914797
 20
1091.95370188978
 30
0.0
 11
1106.6045914797
 21
1089.70370188979
 31
0.0
  0
LINE
  5
AD
330
44
100
AcDbEntity
  8
2
  6
Continuous
 62
     7
100
AcDbLine
 10
1146.6045914797
 20
1089.70370188979
 30
0.0
 11
1141.6045914797
 21
1089.70370188979
 31
0.0
  0
LINE
  5
AE
330
44
100
AcDbEntity
  8
2
  6
Continuous
 62
     7
100
AcDbLine
 10
1141.6045914797
 20
1089.70370188979
 30
0.0
 11
1141.6045914797
 21
1091.95370188978
 31
0.0
  0
LINE
  5
AF
330
44
100
AcDbEntity
  8
2
  6
Continuous
 62
     7
100
AcDbLine
 10
1151.6045914797
 20
1089.70370188979
 30
0.0
 11
1146.6045914797
 21
1089.70370188979
 31
0.0
  0
LINE
  5
B0
330
44
100
AcDbEntity
  8
2
  6
Continuous
 62
     7
100
AcDbLine
 10
1151.6045914797
 20
1091.95370188978
 30
0.0
 11
1151.6045914797
 21
1089.70370188979
 31
0.0
  0
LINE
  5
B1
330
44
100
AcDbEntity
  8
2
  6
Continuous
 62
     7
100
AcDbLine
 10
1131.6045914797
 20
1089.70370188979
 30
0.0
 11
1126.6045914797
 21
1089.70370188979
 31
0.0
  0
LINE
  5
B2
330
44
100
AcDbEntity
  8
2
  6
Continuous
 62
     7
100
AcDbLine
 10
1126.6045914797
 20
1089.70370188979
 30
0.0
 11
1126.6045914797
 21
1091.95370188978
 31
0.0
  0
LINE
  5
B3
330
44
100
AcDbEntity
  8
2
  6
Continuous
 62
     7
100
AcDbLine
 10
1136.6045914797
 20
1089.70370188979
 30
0.0
 11
1131.6045914797
 21
1089.70370188979
 31
0.0
  0
LINE
  5
B4
330
44
100
AcDbEntity
  8
2
  6
Continuous
 62
     7
100
AcDbLine
 10
1136.6045914797
 20
1091.95370188978
 30
0.0
 11
1136.6045914797
 21
1089.70370188979
 31
0.0
  0
LINE
  5
B5
330
44
100
AcDbEntity
  8
2
  6
Continuous
 62
     7
100
AcDbLine
 10
1116.6045914797
 20
1089.70370188979
 30
0.0
 11
1111.6045914797
 21
1089.70370188979
 31
0.0
  0
LINE
  5
B6
330
44
100
AcDbEntity
  8
1
  6
Continuous
 62
     7
100
AcDbLine
 10
1116.6045914797
 20
1091.95370188978
 30
0.0
 11
1079.8545914797
 21
1091.95370188978
 31
0.0
  0
LINE
  5
B7
330
44
100
AcDbEntity
  8
2
  6
Continuous
 62
     7
100
AcDbLine
 10
1111.6045914797
 20
1089.70370188979
 30
0.0
 11
1111.6045914797
 21
1091.95370188978
 31
0.0
  0
LINE
  5
B8
330
44
100
AcDbEntity
  8
2
  6
Continuous
 62
     7
100
AcDbLine
 10
1155.10459147959
 20
1092.95370188979
 30
0.0
 11
1078.1045914796
 21
1092.95370188979
 31
0.0
  0
LINE
  5
B9
330
44
100
AcDbEntity
  8
2
  6
Continuous
 62
     7
100
AcDbLine
 10
1121.6045914797
 20
1089.70370188979
 30
0.0
 11
1116.6045914797
 21
1089.70370188979
 31
0.0
  0
LINE
  5
BA
330
44
100
AcDbEntity
  8
1
  6
Continuous
 62
     7
100
AcDbLine
 10
1153.3545914797
 20
1091.95370188978
 30
0.0
 11
1116.6045914797
 21
1091.95370188978
 31
0.0
  0
LINE
  5
BB
330
44
100
AcDbEntity
  8
2
  6
Continuous
 62
     7
100
AcDbLine
 10
1121.6045914797
 20
1091.95370188978
 30
0.0
 11
1121.6045914797
 21
1089.70370188979
 31
0.0
  0
LINE
  5
BC
330
44
100
AcDbEntity
  8
1
  6
Continuous
 62
     7
100
AcDbLine
 10
1129.1045914797
 20
1208.38671459168
 30
0.0
 11
1129.1045914797
 21
1203.95370188979
 31
0.0
  0
LINE
  5
BD
330
44
100
AcDbEntity
  8
1
  6
Continuous
 62
     7
100
AcDbLine
 10
1129.1045914797
 20
1209.52068918789
 30
0.0
 11
1129.1045914797
 21
1208.38671459168
 31
0.0
  0
LINE
  5
BE
330
44
100
AcDbEntity
  8
1
  6
Continuous
 62
     7
100
AcDbLine
 10
1123.6045914797
 20
1221.95370188979
 30
0.0
 11
1123.6045914797
 21
1224.45370188979
 31
0.0
  0
LINE
  5
BF
330
44
100
AcDbEntity
  8
1
  6
Continuous
 62
     7
100
AcDbLine
 10
1123.6045914797
 20
1221.95370188979
 30
0.0
 11
1128.37235843266
 21
1217.18593493682
 31
0.0
  0
LINE
  5
C0
330
44
100
AcDbEntity
  8
1
  6
Continuous
 62
     7
100
AcDbLine
 10
1109.1045914797
 20
1221.45370188979
 30
0.0
 11
1111.37235843266
 21
1223.72146884275
 31
0.0
  0
LINE
  5
C1
330
44
100
AcDbEntity
  8
1
  6
Continuous
 62
     7
100
AcDbLine
 10
1106.6045914797
 20
1218.95370188979
 30
0.0
 11
1109.1045914797
 21
1221.45370188979
 31
0.0
  0
LINE
  5
C2
330
44
100
AcDbEntity
  8
1
  6
Continuous
 62
     7
100
AcDbLine
 10
1109.6045914797
 20
1221.95370188979
 30
0.0
 11
1109.6045914797
 21
1224.45370188979
 31
0.0
  0
LINE
  5
C3
330
44
100
AcDbEntity
  8
1
  6
Continuous
 62
     7
100
AcDbLine
 10
1102.8545914797
 20
1224.95370188979
 30
0.0
 11
1102.8545914797
 21
1203.95370188979
 31
0.0
  0
LINE
  5
C4
330
44
100
AcDbEntity
  8
1
  6
Continuous
 62
     7
100
AcDbLine
 10
1130.3545914797
 20
1224.95370188979
 30
0.0
 11
1130.3545914797
 21
1226.45370188979
 31
0.0
  0
LINE
  5
C5
330
44
100
AcDbEntity
  8
1
  6
Continuous
 62
     7
100
AcDbLine
 10
1117.8545914797
 20
1220.95370188979
 30
0.0
 11
1117.8545914797
 21
1220.51495138938
 31
0.0
  0
LINE
  5
C6
330
44
100
AcDbEntity
  8
1
  6
Continuous
 62
     7
100
AcDbLine
 10
1115.3545914797
 20
1220.95370188979
 30
0.0
 11
1115.3545914797
 21
1220.51495138938
 31
0.0
  0
LINE
  5
C7
330
44
100
AcDbEntity
  8
1
  6
Continuous
 62
     7
100
AcDbLine
 10
1130.71334849871
 20
1208.95370188979
 30
0.0
 11
1131.46093752406
 21
1208.95370188979
 31
0.0
  0
LINE
  5
C8
330
44
100
AcDbEntity
  8
1
  6
DOT_CENTER
 62
     2
100
AcDbLine
 10
1130.71334849871
 20
1208.95370188979
 30
0.0
 11
1131.46093752406
 21
1208.95370188979
 31
0.0
  0
LINE
  5
C9
330
44
100
AcDbEntity
  8
1
  6
DOT_CENTER
 62
     2
100
AcDbLine
 10
1130.77126139839
 20
1208.95370188979
 30
0.0
 11
1131.51052251129
 21
1208.95370188979
 31
0.0
  0
LINE
  5
CA
330
44
100
AcDbEntity
  8
1
  6
Continuous
 62
     7
100
AcDbLine
 10
1131.51052251129
 20
1208.95370188979
 30
0.0
 11
1130.77126139839
 21
1208.95370188979
 31
0.0
  0
LINE
  5
CB
330
44
100
AcDbEntity
  8
1
  6
Continuous
 62
     7
100
AcDbLine
 10
1101.41998821814
 20
1208.95370188979
 30
0.0
 11
1102.16757724348
 21
1208.95370188979
 31
0.0
  0
LINE
  5
CC
330
44
100
AcDbEntity
  8
1
  6
DOT_CENTER
 62
     2
100
AcDbLine
 10
1101.41998821814
 20
1208.95370188979
 30
0.0
 11
1102.16757724348
 21
1208.95370188979
 31
0.0
  0
LINE
  5
CD
330
44
100
AcDbEntity
  8
1
  6
Continuous
 62
     7
100
AcDbLine
 10
1104.1045914797
 20
1203.95370188979
 30
0.0
 11
1104.1045914797
 21
1215.41816798385
 31
0.0
  0
LINE
  5
CE
330
44
100
AcDbEntity
  8
1
  6
Continuous
 62
     7
100
AcDbLine
 10
1104.83682452673
 20
1217.18593493682
 30
0.0
 11
1106.6045914797
 21
1218.95370188979
 31
0.0
  0
LINE
  5
CF
330
44
100
AcDbEntity
  8
1
  6
Continuous
 62
     7
100
AcDbLine
 10
1121.83682452673
 20
1223.72146884275
 30
0.0
 11
1123.6045914797
 21
1221.95370188979
 31
0.0
  0
LINE
  5
D0
330
44
100
AcDbEntity
  8
1
  6
Continuous
 62
     7
100
AcDbLine
 10
1129.1045914797
 20
1215.41816798385
 30
0.0
 11
1129.1045914797
 21
1209.52068918789
 31
0.0
  0
LINE
  5
D1
330
44
100
AcDbEntity
  8
1
  6
Continuous
 62
     7
100
AcDbLine
 10
1126.6045914797
 20
1201.45370188979
 30
0.0
 11
1106.6045914797
 21
1201.45370188979
 31
0.0
  0
LINE
  5
D2
330
44
100
AcDbEntity
  8
1
  6
Continuous
 62
     7
100
AcDbLine
 10
1113.14012538563
 20
1224.45370188979
 30
0.0
 11
1120.06905757376
 21
1224.45370188979
 31
0.0
  0
LINE
  5
D3
330
44
100
AcDbEntity
  8
1
  6
Continuous
 62
     7
100
AcDbLine
 10
1126.6045914797
 20
1201.20370188979
 30
0.0
 11
1106.6045914797
 21
1201.20370188979
 31
0.0
  0
LINE
  5
D4
330
44
100
AcDbEntity
  8
1
  6
Continuous
 62
     7
100
AcDbLine
 10
1103.8545914797
 20
1203.95370188979
 30
0.0
 11
1103.8545914797
 21
1226.45370188979
 31
0.0
  0
LINE
  5
D5
330
44
100
AcDbEntity
  8
1
  6
Continuous
 62
     7
100
AcDbLine
 10
1102.8545914797
 20
1226.45370188979
 30
0.0
 11
1102.8545914797
 21
1224.95370188979
 31
0.0
  0
LINE
  5
D6
330
44
100
AcDbEntity
  8
1
  6
Continuous
 62
     7
100
AcDbLine
 10
1106.6045914797
 20
1200.20370188979
 30
0.0
 11
1126.6045914797
 21
1200.20370188979
 31
0.0
  0
LINE
  5
D7
330
44
100
AcDbEntity
  8
1
  6
Continuous
 62
     7
100
AcDbLine
 10
1109.1045914797
 20
1200.20370188979
 30
0.0
 11
1109.1045914797
 21
1201.20370188979
 31
0.0
  0
LINE
  5
D8
330
44
100
AcDbEntity
  8
1
  6
Continuous
 62
     7
100
AcDbLine
 10
1129.3545914797
 20
1203.95370188979
 30
0.0
 11
1129.3545914797
 21
1226.45370188979
 31
0.0
  0
LINE
  5
D9
330
44
100
AcDbEntity
  8
1
  6
Continuous
 62
     7
100
AcDbLine
 10
1130.3545914797
 20
1203.95370188979
 30
0.0
 11
1130.3545914797
 21
1224.95370188979
 31
0.0
  0
LINE
  5
DA
330
44
100
AcDbEntity
  8
1
  6
Continuous
 62
     7
100
AcDbLine
 10
1127.8545914797
 20
1224.95370188979
 30
0.0
 11
1105.3545914797
 21
1224.95370188979
 31
0.0
  0
LINE
  5
DB
330
44
100
AcDbEntity
  8
1
  6
Continuous
 62
     7
100
AcDbLine
 10
1124.1045914797
 20
1200.20370188979
 30
0.0
 11
1124.1045914797
 21
1201.20370188979
 31
0.0
  0
LINE
  5
DC
330
44
100
AcDbEntity
  8
1
  6
Continuous
 62
     7
100
AcDbLine
 10
1108.6045914797
 20
1224.45370188979
 30
0.0
 11
1108.6045914797
 21
1221.78212901453
 31
0.0
  0
LINE
  5
DD
330
44
100
AcDbEntity
  8
1
  6
Continuous
 62
     7
100
AcDbLine
 10
1106.27616435495
 20
1219.45370188979
 30
0.0
 11
1104.3545914797
 21
1219.45370188979
 31
0.0
  0
LINE
  5
DE
330
44
100
AcDbEntity
  8
1
  6
Continuous
 62
     7
100
AcDbLine
 10
1104.3545914797
 20
1218.45370188979
 30
0.0
 11
1106.1045914797
 21
1218.45370188979
 31
0.0
  0
LINE
  5
DF
330
44
100
AcDbEntity
  8
1
  6
Continuous
 62
     7
100
AcDbLine
 10
1128.8545914797
 20
1218.45370188979
 30
0.0
 11
1127.1045914797
 21
1218.45370188979
 31
0.0
  0
LINE
  5
E0
330
44
100
AcDbEntity
  8
1
  6
Continuous
 62
     7
100
AcDbLine
 10
1126.93301860444
 20
1219.45370188979
 30
0.0
 11
1128.8545914797
 21
1219.45370188979
 31
0.0
  0
LINE
  5
E1
330
44
100
AcDbEntity
  8
1
  6
Continuous
 62
     7
100
AcDbLine
 10
1124.6045914797
 20
1224.45370188979
 30
0.0
 11
1124.6045914797
 21
1221.78212901453
 31
0.0
  0
LINE
  5
E2
330
44
100
AcDbEntity
  8
1
  6
Continuous
 62
     7
100
AcDbLine
 10
1078.1045914796
 20
1094.95370188979
 30
0.0
 11
1155.10459147959
 21
1094.95370188979
 31
0.0
  0
LINE
  5
E3
330
44
100
AcDbEntity
  8
1
  6
Continuous
 62
     7
100
AcDbLine
 10
1067.85459147971
 20
1151.20370188979
 30
0.0
 11
1067.8545914796
 21
1104.70370188979
 31
0.0
  0
LINE
  5
E4
330
44
100
AcDbEntity
  8
1
  6
Continuous
 62
     7
100
AcDbLine
 10
1155.10459147959
 20
1094.45370188979
 30
0.0
 11
1078.1045914796
 21
1094.45370188979
 31
0.0
  0
LINE
  5
E5
330
44
100
AcDbEntity
  8
1
  6
Continuous
 62
     7
100
AcDbLine
 10
1165.35459147959
 20
1104.70370188979
 30
0.0
 11
1165.35459147971
 21
1151.20370188979
 31
0.0
  0
LINE
  5
E6
330
44
100
AcDbEntity
  8
1
  6
Continuous
 62
     7
100
AcDbLine
 10
1165.301296009
 20
1152.70370188979
 30
0.0
 11
1116.6045914797
 21
1152.70370188979
 31
0.0
  0
LINE
  5
E7
330
44
100
AcDbEntity
  8
1
  6
Continuous
 62
     7
100
AcDbLine
 10
1156.98413776438
 20
1224.95370188979
 30
0.0
 11
1130.3545914797
 21
1224.95370188979
 31
0.0
  0
LINE
  5
E8
330
44
100
AcDbEntity
  8
1
  6
Continuous
 62
     7
100
AcDbLine
 10
1166.85459147969
 20
1151.20370188979
 30
0.0
 11
1164.47956896702
 21
1219.21544811505
 31
0.0
  0
LINE
  5
E9
330
44
100
AcDbEntity
  8
1
  6
Continuous
 62
     7
100
AcDbLine
 10
1156.98413776438
 20
1226.45370188979
 30
0.0
 11
1076.22504519499
 21
1226.45370188979
 31
0.0
  0
LINE
  5
EA
330
44
100
AcDbEntity
  8
1
  6
Continuous
 62
     7
100
AcDbLine
 10
1155.10459147959
 20
1092.95370188979
 30
0.0
 11
1078.1045914796
 21
1092.95370188979
 31
0.0
  0
LINE
  5
EB
330
44
100
AcDbEntity
  8
1
  6
Continuous
 62
     7
100
AcDbLine
 10
1066.35459147969
 20
1151.20370188979
 30
0.0
 11
1066.35459147969
 21
1142.95370188979
 31
0.0
  0
LINE
  5
EC
330
44
100
AcDbEntity
  8
1
  6
Continuous
 62
     7
100
AcDbLine
 10
1068.72961399235
 20
1219.21544811505
 30
0.0
 11
1066.35459147969
 21
1151.20370188979
 31
0.0
  0
LINE
  5
ED
330
44
100
AcDbEntity
  8
1
  6
Continuous
 62
     7
100
AcDbLine
 10
1166.85459147968
 20
1142.95370188979
 30
0.0
 11
1166.85459147969
 21
1151.20370188979
 31
0.0
  0
LINE
  5
EE
330
44
100
AcDbEntity
  8
1
  6
Continuous
 62
     7
100
AcDbLine
 10
1066.35459147969
 20
1142.95370188979
 30
0.0
 11
1066.3545914796
 21
1104.70370188979
 31
0.0
  0
LINE
  5
EF
330
44
100
AcDbEntity
  8
1
  6
Continuous
 62
     7
100
AcDbLine
 10
1166.85459147959
 20
1104.70370188979
 30
0.0
 11
1166.85459147968
 21
1142.95370188979
 31
0.0
  0
LINE
  5
F0
330
44
100
AcDbEntity
  8
1
  6
Continuous
 62
     7
100
AcDbLine
 10
1079.1045914797
 20
1092.95370188979
 30
0.0
 11
1079.1045914797
 21
1094.45370188979
 31
0.0
  0
LINE
  5
F1
330
44
100
AcDbEntity
  8
1
  6
Continuous
 62
     7
100
AcDbLine
 10
1116.6045914797
 20
1132.70370188979
 30
0.0
 11
1156.6045914797
 21
1122.70370188979
 31
0.0
  0
LINE
  5
F2
330
44
100
AcDbEntity
  8
1
  6
Continuous
 62
     7
100
AcDbLine
 10
1152.80555337402
 20
1092.95370188979
 30
0.0
 11
1152.80555337402
 21
1094.45370188979
 31
0.0
  0
LINE
  5
F3
330
44
100
AcDbEntity
  8
1
  6
Continuous
 62
     7
100
AcDbLine
 10
1154.1045914797
 20
1092.95370188979
 30
0.0
 11
1154.1045914797
 21
1094.45370188979
 31
0.0
  0
LINE
  5
F4
330
44
100
AcDbEntity
  8
1
  6
Continuous
 62
     7
100
AcDbLine
 10
1080.40362958537
 20
1094.45370188979
 30
0.0
 11
1080.40362958537
 21
1092.95370188979
 31
0.0
  0
LINE
  5
F5
330
44
100
AcDbEntity
  8
1
  6
Continuous
 62
     7
100
AcDbLine
 10
1102.8545914797
 20
1224.95370188979
 30
0.0
 11
1076.22504519499
 21
1224.95370188979
 31
0.0
  0
LINE
  5
F6
330
44
100
AcDbEntity
  8
1
  6
Continuous
 62
     7
100
AcDbLine
 10
1076.6045914797
 20
1097.70370188979
 30
0.0
 11
1076.6045914797
 21
1122.70370188979
 31
0.0
  0
LINE
  5
F7
330
44
100
AcDbEntity
  8
1
  6
Continuous
 62
     7
100
AcDbLine
 10
1156.6045914797
 20
1122.70370188979
 30
0.0
 11
1156.6045914797
 21
1097.70370188979
 31
0.0
  0
LINE
  5
F8
330
44
100
AcDbEntity
  8
1
  6
Continuous
 62
     7
100
AcDbLine
 10
1077.6045914797
 20
1097.70370188979
 30
0.0
 11
1077.6045914797
 21
1121.92292548338
 31
0.0
  0
LINE
  5
F9
330
44
100
AcDbEntity
  8
1
  6
Continuous
 62
     7
100
AcDbLine
 10
1077.6045914797
 20
1121.92292548338
 30
0.0
 11
1093.67443225022
 21
1125.94038567601
 31
0.0
  0
LINE
  5
FA
330
44
100
AcDbEntity
  8
1
  6
Continuous
 62
     7
100
AcDbLine
 10
1116.6045914797
 20
1131.67292548338
 30
0.0
 11
1155.6045914797
 21
1121.92292548338
 31
0.0
  0
LINE
  5
FB
330
44
100
AcDbEntity
  8
1
  6
Continuous
 62
     7
100
AcDbLine
 10
1155.6045914797
 20
1121.92292548338
 30
0.0
 11
1155.6045914797
 21
1097.70370188979
 31
0.0
  0
LINE
  5
FC
330
44
100
AcDbEntity
  8
1
  6
Continuous
 62
     7
100
AcDbLine
 10
1076.6045914797
 20
1097.70370188979
 30
0.0
 11
1077.6045914797
 21
1097.70370188979
 31
0.0
  0
LINE
  5
FD
330
44
100
AcDbEntity
  8
1
  6
Continuous
 62
     7
100
AcDbLine
 10
1155.6045914797
 20
1097.70370188979
 30
0.0
 11
1156.6045914797
 21
1097.70370188979
 31
0.0
  0
LINE
  5
FE
330
44
100
AcDbEntity
  8
1
  6
Continuous
 62
     7
100
AcDbLine
 10
1070.22870023288
 20
1219.16309887
 30
0.0
 11
1067.85367772022
 21
1151.15135264473
 31
0.0
  0
LINE
  5
FF
330
44
100
AcDbEntity
  8
1
  6
Continuous
 62
     7
100
AcDbLine
 10
1165.35550523916
 20
1151.15135264473
 30
0.0
 11
1162.9804827265
 21
1219.16309887
 31
0.0
  0
LINE
  5
100
330
44
100
AcDbEntity
  8
1
  6
Continuous
 62
     7
100
AcDbLine
 10
1116.6045914797
 20
1152.70370188979
 30
0.0
 11
1067.90788695037
 21
1152.70370188979
 31
0.0
  0
LINE
  5
101
330
44
100
AcDbEntity
  8
1
  6
Continuous
 62
     7
100
AcDbLine
 10
1076.6045914797
 20
1122.70370188979
 30
0.0
 11
1093.43189662518
 21
1126.91052817616
 31
0.0
  0
LINE
  5
102
330
44
100
AcDbEntity
  8
1
  6
DOT_CENTER
 62
     6
100
AcDbLine
 10
1093.43189662518
 20
1126.91052817616
 30
0.0
 11
1093.67443225022
 21
1125.94038567601
 31
0.0
  0
LINE
  5
103
330
44
100
AcDbEntity
  8
1
  6
Continuous
 62
     7
100
AcDbLine
 10
1093.67443225022
 20
1125.94038567601
 30
0.0
 11
1116.6045914797
 21
1131.67292548338
 31
0.0
  0
LINE
  5
104
330
44
100
AcDbEntity
  8
1
  6
DOT_CENTER
 62
     6
100
AcDbLine
 10
1093.67443225022
 20
1125.94038567601
 30
0.0
 11
1093.43189662518
 21
1126.91052817616
 31
0.0
  0
LINE
  5
105
330
44
100
AcDbEntity
  8
1
  6
Continuous
 62
     7
100
AcDbLine
 10
1093.43189662518
 20
1126.91052817616
 30
0.0
 11
1116.6045914797
 21
1132.70370188979
 31
0.0
  0
LINE
  5
106
330
44
100
AcDbEntity
  8
1
  6
Continuous
 62
     7
100
AcDbLine
 10
845.732171938876
 20
1140.95370188978
 30
0.0
 11
845.732171941796
 21
1104.70370188979
 31
0.0
  0
LINE
  5
107
330
44
100
AcDbEntity
  8
2
  6
Continuous
 62
     7
100
AcDbLine
 10
845.732171938876
 20
1140.95370188978
 30
0.0
 11
845.982171938854
 21
1141.20370188978
 31
0.0
  0
LINE
  5
108
330
44
100
AcDbEntity
  8
2
  6
Continuous
 62
     7
100
AcDbLine
 10
846.482171941924
 20
1141.20370188978
 30
0.0
 11
846.482171941924
 21
1141.45370188979
 31
0.0
  0
LINE
  5
109
330
44
100
AcDbEntity
  8
1
  6
Continuous
 62
     7
100
AcDbLine
 10
895.982171941924
 20
1140.95370188978
 30
0.0
 11
845.732171938876
 21
1140.95370188978
 31
0.0
  0
LINE
  5
10A
330
44
100
AcDbEntity
  8
2
  6
Continuous
 62
     7
100
AcDbLine
 10
845.982171938854
 20
1141.20370188978
 30
0.0
 11
895.982171941924
 21
1141.20370188978
 31
0.0
  0
LINE
  5
10B
330
44
100
AcDbEntity
  8
2
  6
Continuous
 62
     7
100
AcDbLine
 10
865.982171941924
 20
1089.70370188979
 30
0.0
 11
860.982171941924
 21
1089.70370188979
 31
0.0
  0
LINE
  5
10C
330
44
100
AcDbEntity
  8
2
  6
Continuous
 62
     7
100
AcDbLine
 10
860.982171941924
 20
1089.70370188979
 30
0.0
 11
860.982171941924
 21
1091.95370188978
 31
0.0
  0
LINE
  5
10D
330
44
100
AcDbEntity
  8
2
  6
Continuous
 62
     7
100
AcDbLine
 10
870.982171941924
 20
1089.70370188979
 30
0.0
 11
865.982171941924
 21
1089.70370188979
 31
0.0
  0
LINE
  5
10E
330
44
100
AcDbEntity
  8
2
  6
Continuous
 62
     7
100
AcDbLine
 10
870.982171941924
 20
1091.95370188978
 30
0.0
 11
870.982171941924
 21
1089.70370188979
 31
0.0
  0
LINE
  5
10F
330
44
100
AcDbEntity
  8
2
  6
Continuous
 62
     7
100
AcDbLine
 10
880.982171941924
 20
1089.70370188979
 30
0.0
 11
875.982171941924
 21
1089.70370188979
 31
0.0
  0
LINE
  5
110
330
44
100
AcDbEntity
  8
2
  6
Continuous
 62
     7
100
AcDbLine
 10
875.982171941924
 20
1089.70370188979
 30
0.0
 11
875.982171941924
 21
1091.95370188978
 31
0.0
  0
LINE
  5
111
330
44
100
AcDbEntity
  8
2
  6
Continuous
 62
     7
100
AcDbLine
 10
880.982171941924
 20
1089.70370188979
 30
0.0
 11
875.982171941924
 21
1089.70370188979
 31
0.0
  0
LINE
  5
112
330
44
100
AcDbEntity
  8
2
  6
Continuous
 62
     7
100
AcDbLine
 10
885.982171941924
 20
1089.70370188979
 30
0.0
 11
880.982171941924
 21
1089.70370188979
 31
0.0
  0
LINE
  5
113
330
44
100
AcDbEntity
  8
2
  6
Continuous
 62
     7
100
AcDbLine
 10
885.982171941924
 20
1091.95370188978
 30
0.0
 11
885.982171941924
 21
1089.70370188979
 31
0.0
  0
LINE
  5
114
330
44
100
AcDbEntity
  8
2
  6
Continuous
 62
     7
100
AcDbLine
 10
925.982171941924
 20
1089.70370188979
 30
0.0
 11
920.982171941924
 21
1089.70370188979
 31
0.0
  0
LINE
  5
115
330
44
100
AcDbEntity
  8
2
  6
Continuous
 62
     7
100
AcDbLine
 10
920.982171941924
 20
1089.70370188979
 30
0.0
 11
920.982171941924
 21
1091.95370188978
 31
0.0
  0
LINE
  5
116
330
44
100
AcDbEntity
  8
2
  6
Continuous
 62
     7
100
AcDbLine
 10
930.982171941924
 20
1089.70370188979
 30
0.0
 11
925.982171941924
 21
1089.70370188979
 31
0.0
  0
LINE
  5
117
330
44
100
AcDbEntity
  8
2
  6
Continuous
 62
     7
100
AcDbLine
 10
930.982171941924
 20
1091.95370188978
 30
0.0
 11
930.982171941924
 21
1089.70370188979
 31
0.0
  0
LINE
  5
118
330
44
100
AcDbEntity
  8
2
  6
Continuous
 62
     7
100
AcDbLine
 10
910.982171941924
 20
1089.70370188979
 30
0.0
 11
905.982171941924
 21
1089.70370188979
 31
0.0
  0
LINE
  5
119
330
44
100
AcDbEntity
  8
2
  6
Continuous
 62
     7
100
AcDbLine
 10
905.982171941924
 20
1089.70370188979
 30
0.0
 11
905.982171941924
 21
1091.95370188978
 31
0.0
  0
LINE
  5
11A
330
44
100
AcDbEntity
  8
2
  6
Continuous
 62
     7
100
AcDbLine
 10
915.982171941924
 20
1089.70370188979
 30
0.0
 11
910.982171941924
 21
1089.70370188979
 31
0.0
  0
LINE
  5
11B
330
44
100
AcDbEntity
  8
2
  6
Continuous
 62
     7
100
AcDbLine
 10
915.982171941924
 20
1091.95370188978
 30
0.0
 11
915.982171941924
 21
1089.70370188979
 31
0.0
  0
LINE
  5
11C
330
44
100
AcDbEntity
  8
2
  6
Continuous
 62
     7
100
AcDbLine
 10
895.982171941924
 20
1089.70370188979
 30
0.0
 11
890.982171941924
 21
1089.70370188979
 31
0.0
  0
LINE
  5
11D
330
44
100
AcDbEntity
  8
1
  6
Continuous
 62
     7
100
AcDbLine
 10
895.982171941924
 20
1091.95370188978
 30
0.0
 11
859.232171941925
 21
1091.95370188978
 31
0.0
  0
LINE
  5
11E
330
44
100
AcDbEntity
  8
2
  6
Continuous
 62
     7
100
AcDbLine
 10
890.982171941924
 20
1089.70370188979
 30
0.0
 11
890.982171941924
 21
1091.95370188978
 31
0.0
  0
LINE
  5
11F
330
44
100
AcDbEntity
  8
2
  6
Continuous
 62
     7
100
AcDbLine
 10
936.361718226605
 20
1226.45370188979
 30
0.0
 11
855.602625657219
 21
1226.45370188979
 31
0.0
  0
LINE
  5
120
330
44
100
AcDbEntity
  8
2
  6
Continuous
 62
     7
100
AcDbLine
 10
845.982171941912
 20
1141.45370188979
 30
0.0
 11
945.982171941911
 21
1141.45370188979
 31
0.0
  0
LINE
  5
121
330
44
100
AcDbEntity
  8
1
  6
Continuous
 62
     7
100
AcDbLine
 10
1016.7079051797
 20
1091.95370188979
 30
0.0
 11
1016.7079051797
 21
1089.70370188979
 31
0.0
  0
LINE
  5
122
330
44
100
AcDbEntity
  8
1
  6
Continuous
 62
     7
100
AcDbLine
 10
1016.7079051797
 20
1089.70370188979
 30
0.0
 11
1026.7079051797
 21
1089.70370188979
 31
0.0
  0
LINE
  5
123
330
44
100
AcDbEntity
  8
1
  6
Continuous
 62
     7
100
AcDbLine
 10
1026.7079051797
 20
1089.70370188979
 30
0.0
 11
1026.7079051797
 21
1091.95370188979
 31
0.0
  0
LINE
  5
124
330
44
100
AcDbEntity
  8
1
  6
Continuous
 62
     7
100
AcDbLine
 10
1024.27997068244
 20
1133.84074742409
 30
0.0
 11
1031.9579051797
 21
1105.75567123674
 31
0.0
  0
LINE
  5
125
330
44
100
AcDbEntity
  8
1
  6
Continuous
 62
     7
100
AcDbLine
 10
946.232171941911
 20
1151.20370188979
 30
0.0
 11
946.232171941911
 21
1141.70370188979
 31
0.0
  0
LINE
  5
126
330
44
100
AcDbEntity
  8
1
  6
Continuous
 62
     7
100
AcDbLine
 10
848.107194454575
 20
1219.21544811505
 30
0.0
 11
845.732171941912
 21
1151.20370188979
 31
0.0
  0
LINE
  5
127
330
44
100
AcDbEntity
  8
1
  6
Continuous
 62
     7
100
AcDbLine
 10
946.232171941911
 20
1151.20370188979
 30
0.0
 11
943.857149429247
 21
1219.21544811505
 31
0.0
  0
LINE
  5
128
330
44
100
AcDbEntity
  8
2
  6
Continuous
 62
     7
100
AcDbLine
 10
934.482171941796
 20
1092.95370188979
 30
0.0
 11
857.482171941796
 21
1092.95370188979
 31
0.0
  0
LINE
  5
129
330
44
100
AcDbEntity
  8
2
  6
Continuous
 62
     7
100
AcDbLine
 10
946.232171941796
 20
1104.70370188979
 30
0.0
 11
946.232171941911
 21
1106.70370188979
 31
0.0
  0
LINE
  5
12A
330
44
100
AcDbEntity
  8
2
  6
Continuous
 62
     7
100
AcDbLine
 10
1031.9579051797
 20
1092.95370188979
 30
0.0
 11
1034.4579051797
 21
1092.95370188979
 31
0.0
  0
LINE
  5
12B
330
44
100
AcDbEntity
  8
2
  6
Continuous
 62
     7
100
AcDbLine
 10
1031.9579051797
 20
1106.65370188979
 30
0.0
 11
1031.9579051797
 21
1092.95370188979
 31
0.0
  0
LINE
  5
12C
330
44
100
AcDbEntity
  8
2
  6
Continuous
 62
     7
100
AcDbLine
 10
1010.2079051797
 20
1141.70370188979
 30
0.0
 11
1010.2079051797
 21
1141.7087570197
 31
0.0
  0
LINE
  5
12D
330
44
100
AcDbEntity
  8
2
  6
Continuous
 62
     7
100
AcDbLine
 10
1034.4579051797
 20
1092.95370188979
 30
0.0
 11
1034.4579051797
 21
1226.45370188979
 31
0.0
  0
LINE
  5
12E
330
44
100
AcDbEntity
  8
2
  6
Continuous
 62
     7
100
AcDbLine
 10
1031.9579051797
 20
1106.70370188979
 30
0.0
 11
1024.47079920629
 21
1134.09074742409
 31
0.0
  0
LINE
  5
12F
330
44
100
AcDbEntity
  8
2
  6
Continuous
 62
     7
100
AcDbLine
 10
946.232171941911
 20
1106.70370188979
 30
0.0
 11
946.232171944972
 21
1140.95370188978
 31
0.0
  0
LINE
  5
130
330
44
100
AcDbEntity
  8
2
  6
Continuous
 62
     7
100
AcDbLine
 10
1035.9579051797
 20
1226.45370188979
 30
0.0
 11
1028.55636190835
 21
1226.45370188979
 31
0.0
  0
LINE
  5
131
330
44
100
AcDbEntity
  8
2
  6
Continuous
 62
     7
100
AcDbLine
 10
1010.2079051797
 20
1153.70370188979
 30
0.0
 11
1010.2079051797
 21
1151.20370188979
 31
0.0
  0
LINE
  5
132
330
44
100
AcDbEntity
  8
2
  6
Continuous
 62
     7
100
AcDbLine
 10
845.732171941912
 20
1151.20370188979
 30
0.0
 11
845.732171941888
 21
1141.45370188979
 31
0.0
  0
LINE
  5
133
330
44
100
AcDbEntity
  8
2
  6
Continuous
 62
     7
100
AcDbLine
 10
1010.4579051797
 20
1141.45370188979
 30
0.0
 11
1014.82476422554
 21
1141.45370188979
 31
0.0
  0
LINE
  5
134
330
44
100
AcDbEntity
  8
2
  6
Continuous
 62
     7
100
AcDbLine
 10
900.982171941924
 20
1089.70370188979
 30
0.0
 11
895.982171941924
 21
1089.70370188979
 31
0.0
  0
LINE
  5
135
330
44
100
AcDbEntity
  8
2
  6
Continuous
 62
     7
100
AcDbLine
 10
1035.9579051797
 20
1107.45370188979
 30
0.0
 11
1035.9579051797
 21
1102.45370188979
 31
0.0
  0
LINE
  5
136
330
44
100
AcDbEntity
  8
2
  6
Continuous
 62
     7
100
AcDbLine
 10
1035.9579051797
 20
1116.95370188979
 30
0.0
 11
1035.9579051797
 21
1112.95370188979
 31
0.0
  0
LINE
  5
137
330
44
100
AcDbEntity
  8
2
  6
Continuous
 62
     7
100
AcDbLine
 10
1035.9579051797
 20
1226.45370188979
 30
0.0
 11
1035.9579051797
 21
1200.20370188979
 31
0.0
  0
LINE
  5
138
330
44
100
AcDbEntity
  8
2
  6
Continuous
 62
     7
100
AcDbLine
 10
1035.9579051797
 20
1102.45370188979
 30
0.0
 11
1034.4579051797
 21
1102.45370188979
 31
0.0
  0
LINE
  5
139
330
44
100
AcDbEntity
  8
2
  6
Continuous
 62
     7
100
AcDbLine
 10
1034.4579051797
 20
1107.45370188979
 30
0.0
 11
1035.9579051797
 21
1107.45370188979
 31
0.0
  0
LINE
  5
13A
330
44
100
AcDbEntity
  8
2
  6
Continuous
 62
     7
100
AcDbLine
 10
1035.9579051797
 20
1112.95370188979
 30
0.0
 11
1034.4579051797
 21
1112.95370188979
 31
0.0
  0
LINE
  5
13B
330
44
100
AcDbEntity
  8
2
  6
Continuous
 62
     7
100
AcDbLine
 10
1034.4579051797
 20
1116.95370188979
 30
0.0
 11
1035.9579051797
 21
1116.95370188979
 31
0.0
  0
LINE
  5
13C
330
44
100
AcDbEntity
  8
2
  6
Continuous
 62
     7
100
AcDbLine
 10
1035.9579051797
 20
1200.20370188979
 30
0.0
 11
1034.4579051797
 21
1200.20370188979
 31
0.0
  0
LINE
  5
13D
330
44
100
AcDbEntity
  8
1
  6
Continuous
 62
     7
100
AcDbLine
 10
932.732171941922
 20
1091.95370188978
 30
0.0
 11
895.982171941924
 21
1091.95370188978
 31
0.0
  0
LINE
  5
13E
330
44
100
AcDbEntity
  8
2
  6
Continuous
 62
     7
100
AcDbLine
 10
1010.2079051797
 20
1140.95370188979
 30
0.0
 11
1010.2079051797
 21
1102.20370188979
 31
0.0
  0
LINE
  5
13F
330
44
100
AcDbEntity
  8
2
  6
Continuous
 62
     7
100
AcDbLine
 10
1031.9579051797
 20
1092.95370188979
 30
0.0
 11
1031.9579051797
 21
1093.20370188979
 31
0.0
  0
LINE
  5
140
330
44
100
AcDbEntity
  8
2
  6
Continuous
 62
     7
100
AcDbLine
 10
895.982171941924
 20
1141.20370188978
 30
0.0
 11
945.982171944994
 21
1141.20370188978
 31
0.0
  0
LINE
  5
141
330
44
100
AcDbEntity
  8
2
  6
Continuous
 62
     7
100
AcDbLine
 10
945.982171944994
 20
1141.20370188978
 30
0.0
 11
946.232171944972
 21
1140.95370188978
 31
0.0
  0
LINE
  5
142
330
44
100
AcDbEntity
  8
2
  6
Continuous
 62
     7
100
AcDbLine
 10
1010.9579051797
 20
1141.45370188979
 30
0.0
 11
1010.9579051797
 21
1141.20370188979
 31
0.0
  0
LINE
  5
143
330
44
100
AcDbEntity
  8
2
  6
Continuous
 62
     7
100
AcDbLine
 10
945.482171941923
 20
1141.45370188979
 30
0.0
 11
945.482171941923
 21
1141.20370188978
 31
0.0
  0
LINE
  5
144
330
44
100
AcDbEntity
  8
1
  6
Continuous
 62
     7
100
AcDbLine
 10
946.232171944972
 20
1140.95370188978
 30
0.0
 11
895.982171941924
 21
1140.95370188978
 31
0.0
  0
LINE
  5
145
330
44
100
AcDbEntity
  8
2
  6
Continuous
 62
     7
100
AcDbLine
 10
1010.4579051797
 20
1141.20370188979
 30
0.0
 11
1010.2079051797
 21
1140.95370188979
 31
0.0
  0
LINE
  5
146
330
44
100
AcDbEntity
  8
2
  6
Continuous
 62
     7
100
AcDbLine
 10
1014.63393570168
 20
1141.20370188979
 30
0.0
 11
1010.4579051797
 21
1141.20370188979
 31
0.0
  0
LINE
  5
147
330
44
100
AcDbEntity
  8
1
  6
Continuous
 62
     7
100
AcDbLine
 10
1014.63393570168
 20
1140.95370188979
 30
0.0
 11
1010.2079051797
 21
1140.95370188979
 31
0.0
  0
LINE
  5
148
330
44
100
AcDbEntity
  8
2
  6
Continuous
 62
     7
100
AcDbLine
 10
900.982171941924
 20
1091.95370188978
 30
0.0
 11
900.982171941924
 21
1089.70370188979
 31
0.0
  0
LINE
  5
149
330
44
100
AcDbEntity
  8
2
  6
Continuous
 62
     7
100
AcDbLine
 10
1031.9579051797
 20
1092.95370188979
 30
0.0
 11
1019.4579051797
 21
1092.95370188979
 31
0.0
  0
LINE
  5
14A
330
44
100
AcDbEntity
  8
1
  6
Continuous
 62
     7
100
AcDbLine
 10
1014.2079051797
 20
1093.95370188979
 30
0.0
 11
1014.2079051797
 21
1094.58792878392
 31
0.0
  0
LINE
  5
14B
330
44
100
AcDbEntity
  8
2
  6
Continuous
 62
     7
100
AcDbLine
 10
1031.9579051797
 20
1091.95370188979
 30
0.0
 11
1031.9579051797
 21
1092.95370188979
 31
0.0
  0
LINE
  5
14C
330
44
100
AcDbEntity
  8
1
  6
Continuous
 62
     7
100
AcDbLine
 10
1031.9579051797
 20
1091.95370188979
 30
0.0
 11
1016.2079051797
 21
1091.95370188979
 31
0.0
  0
LINE
  5
14D
330
44
100
AcDbEntity
  8
1
  6
Continuous
 62
     7
100
AcDbLine
 10
1024.03881980792
 20
1133.77482128574
 30
0.0
 11
1031.9579051797
 21
1104.8076405837
 31
0.0
  0
LINE
  5
14E
330
44
100
AcDbEntity
  8
1
  6
Continuous
 62
     7
100
AcDbLine
 10
1010.2079051797
 20
1141.7087570197
 30
0.0
 11
1010.2079051797
 21
1141.45370188979
 31
0.0
  0
LINE
  5
14F
330
44
100
AcDbEntity
  8
2
  6
Continuous
 62
     7
100
AcDbLine
 10
1010.2079051797
 20
1141.7087570197
 30
0.0
 11
1010.2079051797
 21
1151.20370188979
 31
0.0
  0
LINE
  5
150
330
44
100
AcDbEntity
  8
1
  6
Continuous
 62
     7
100
AcDbLine
 10
1010.2079051797
 20
1141.45370188979
 30
0.0
 11
1010.4579051797
 21
1141.45370188979
 31
0.0
  0
LINE
  5
151
330
44
100
AcDbEntity
  8
1
  6
Continuous
 62
     7
100
AcDbLine
 10
946.232171941911
 20
1141.70370188979
 30
0.0
 11
946.232171941911
 21
1141.45370188979
 31
0.0
  0
LINE
  5
152
330
44
100
AcDbEntity
  8
1
  6
Continuous
 62
     7
100
AcDbLine
 10
946.232171941911
 20
1141.45370188979
 30
0.0
 11
945.982171941911
 21
1141.45370188979
 31
0.0
  0
LINE
  5
153
330
44
100
AcDbEntity
  8
1
  6
Continuous
 62
     7
100
AcDbLine
 10
845.982171941912
 20
1141.45370188979
 30
0.0
 11
845.732171941888
 21
1141.45370188979
 31
0.0
  0
LINE
  5
154
330
44
100
AcDbEntity
  8
1
  6
Continuous
 62
     7
100
AcDbLine
 10
898.482171941924
 20
1037.07946535194
 30
0.0
 11
898.482171941924
 21
1037.82946535194
 31
0.0
  0
LINE
  5
155
330
44
100
AcDbEntity
  8
1
  6
Continuous
 62
     7
100
AcDbLine
 10
900.607171941924
 20
1039.07946535194
 30
0.0
 11
900.607171941924
 21
1041.32946535194
 31
0.0
  0
LINE
  5
156
330
44
100
AcDbEntity
  8
1
  6
Continuous
 62
     7
100
AcDbLine
 10
890.982171941924
 20
1037.82946535194
 30
0.0
 11
900.982171941924
 21
1037.82946535194
 31
0.0
  0
LINE
  5
157
330
44
100
AcDbEntity
  8
1
  6
Continuous
 62
     7
100
AcDbLine
 10
900.357171941924
 20
1041.32946535194
 30
0.0
 11
900.357171941924
 21
1039.07946535194
 31
0.0
  0
LINE
  5
158
330
44
100
AcDbEntity
  8
1
  6
Continuous
 62
     7
100
AcDbLine
 10
899.635484105437
 20
1039.07946535194
 30
0.0
 11
899.635484105437
 21
1041.32946535194
 31
0.0
  0
LINE
  5
159
330
44
100
AcDbEntity
  8
1
  6
Continuous
 62
     7
100
AcDbLine
 10
899.078859778411
 20
1041.32946535194
 30
0.0
 11
899.078859778411
 21
1039.07946535194
 31
0.0
  0
LINE
  5
15A
330
44
100
AcDbEntity
  8
1
  6
Continuous
 62
     7
100
AcDbLine
 10
898.357171941924
 20
1039.07946535194
 30
0.0
 11
898.357171941924
 21
1041.32946535194
 31
0.0
  0
LINE
  5
15B
330
44
100
AcDbEntity
  8
1
  6
Continuous
 62
     7
100
AcDbLine
 10
898.107171941924
 20
1041.32946535194
 30
0.0
 11
898.107171941924
 21
1039.07946535194
 31
0.0
  0
LINE
  5
15C
330
44
100
AcDbEntity
  8
1
  6
Continuous
 62
     7
100
AcDbLine
 10
897.385484105437
 20
1039.07946535194
 30
0.0
 11
897.385484105437
 21
1041.32946535194
 31
0.0
  0
LINE
  5
15D
330
44
100
AcDbEntity
  8
1
  6
Continuous
 62
     7
100
AcDbLine
 10
896.828859778411
 20
1041.32946535194
 30
0.0
 11
896.828859778411
 21
1039.07946535194
 31
0.0
  0
LINE
  5
15E
330
44
100
AcDbEntity
  8
1
  6
Continuous
 62
     7
100
AcDbLine
 10
896.107171941924
 20
1039.07946535194
 30
0.0
 11
896.107171941924
 21
1041.32946535194
 31
0.0
  0
LINE
  5
15F
330
44
100
AcDbEntity
  8
1
  6
Continuous
 62
     7
100
AcDbLine
 10
895.857171941924
 20
1041.32946535194
 30
0.0
 11
895.857171941924
 21
1039.07946535194
 31
0.0
  0
LINE
  5
160
330
44
100
AcDbEntity
  8
1
  6
Continuous
 62
     7
100
AcDbLine
 10
900.982171941924
 20
1039.07946535194
 30
0.0
 11
890.982171941924
 21
1039.07946535194
 31
0.0
  0
LINE
  5
161
330
44
100
AcDbEntity
  8
1
  6
Continuous
 62
     7
100
AcDbLine
 10
891.357171941924
 20
1041.32946535194
 30
0.0
 11
891.357171941924
 21
1039.07946535194
 31
0.0
  0
LINE
  5
162
330
44
100
AcDbEntity
  8
1
  6
Continuous
 62
     7
100
AcDbLine
 10
891.607171941924
 20
1039.07946535194
 30
0.0
 11
891.607171941924
 21
1041.32946535194
 31
0.0
  0
LINE
  5
163
330
44
100
AcDbEntity
  8
1
  6
Continuous
 62
     7
100
AcDbLine
 10
893.482171941924
 20
1037.07946535194
 30
0.0
 11
893.482171941924
 21
1037.82946535194
 31
0.0
  0
LINE
  5
164
330
44
100
AcDbEntity
  8
1
  6
Continuous
 62
     7
100
AcDbLine
 10
895.135484105437
 20
1039.07946535194
 30
0.0
 11
895.135484105437
 21
1041.32946535194
 31
0.0
  0
LINE
  5
165
330
44
100
AcDbEntity
  8
1
  6
Continuous
 62
     7
100
AcDbLine
 10
894.578859778411
 20
1041.32946535194
 30
0.0
 11
894.578859778411
 21
1039.07946535194
 31
0.0
  0
LINE
  5
166
330
44
100
AcDbEntity
  8
1
  6
Continuous
 62
     7
100
AcDbLine
 10
893.857171941924
 20
1039.07946535194
 30
0.0
 11
893.857171941924
 21
1041.32946535194
 31
0.0
  0
LINE
  5
167
330
44
100
AcDbEntity
  8
1
  6
Continuous
 62
     7
100
AcDbLine
 10
893.607171941924
 20
1041.32946535194
 30
0.0
 11
893.607171941924
 21
1039.07946535194
 31
0.0
  0
LINE
  5
168
330
44
100
AcDbEntity
  8
1
  6
Continuous
 62
     7
100
AcDbLine
 10
892.885484105437
 20
1039.07946535194
 30
0.0
 11
892.885484105437
 21
1041.32946535194
 31
0.0
  0
LINE
  5
169
330
44
100
AcDbEntity
  8
1
  6
Continuous
 62
     7
100
AcDbLine
 10
892.328859778411
 20
1041.32946535194
 30
0.0
 11
892.328859778411
 21
1039.07946535194
 31
0.0
  0
LINE
  5
16A
330
44
100
AcDbEntity
  8
1
  6
Continuous
 62
     7
100
AcDbLine
 10
890.982171941924
 20
1041.32946535194
 30
0.0
 11
900.982171941924
 21
1041.32946535194
 31
0.0
  0
LINE
  5
16B
330
44
100
AcDbEntity
  8
1
  6
Continuous
 62
     7
100
AcDbLine
 10
890.982171941924
 20
1047.32946535194
 30
0.0
 11
890.982171941924
 21
1037.07946535194
 31
0.0
  0
LINE
  5
16C
330
44
100
AcDbEntity
  8
1
  6
Continuous
 62
     7
100
AcDbLine
 10
900.982171941924
 20
1037.07946535194
 30
0.0
 11
900.982171941924
 21
1047.32946535194
 31
0.0
  0
LINE
  5
16D
330
44
100
AcDbEntity
  8
1
  6
Continuous
 62
     7
100
AcDbLine
 10
863.482171941924
 20
1037.82946535194
 30
0.0
 11
863.482171941924
 21
1037.07946535194
 31
0.0
  0
LINE
  5
16E
330
44
100
AcDbEntity
  8
1
  6
Continuous
 62
     7
100
AcDbLine
 10
861.357171941924
 20
1041.32946535194
 30
0.0
 11
861.357171941924
 21
1039.07946535194
 31
0.0
  0
LINE
  5
16F
330
44
100
AcDbEntity
  8
1
  6
Continuous
 62
     7
100
AcDbLine
 10
860.982171941924
 20
1037.82946535194
 30
0.0
 11
870.982171941924
 21
1037.82946535194
 31
0.0
  0
LINE
  5
170
330
44
100
AcDbEntity
  8
1
  6
Continuous
 62
     7
100
AcDbLine
 10
861.607171941924
 20
1039.07946535194
 30
0.0
 11
861.607171941924
 21
1041.32946535194
 31
0.0
  0
LINE
  5
171
330
44
100
AcDbEntity
  8
1
  6
Continuous
 62
     7
100
AcDbLine
 10
862.328859778411
 20
1041.32946535194
 30
0.0
 11
862.328859778411
 21
1039.07946535194
 31
0.0
  0
LINE
  5
172
330
44
100
AcDbEntity
  8
1
  6
Continuous
 62
     7
100
AcDbLine
 10
862.885484105437
 20
1039.07946535194
 30
0.0
 11
862.885484105437
 21
1041.32946535194
 31
0.0
  0
LINE
  5
173
330
44
100
AcDbEntity
  8
1
  6
Continuous
 62
     7
100
AcDbLine
 10
863.607171941924
 20
1041.32946535194
 30
0.0
 11
863.607171941924
 21
1039.07946535194
 31
0.0
  0
LINE
  5
174
330
44
100
AcDbEntity
  8
1
  6
Continuous
 62
     7
100
AcDbLine
 10
863.857171941924
 20
1039.07946535194
 30
0.0
 11
863.857171941924
 21
1041.32946535194
 31
0.0
  0
LINE
  5
175
330
44
100
AcDbEntity
  8
1
  6
Continuous
 62
     7
100
AcDbLine
 10
864.578859778411
 20
1041.32946535194
 30
0.0
 11
864.578859778411
 21
1039.07946535194
 31
0.0
  0
LINE
  5
176
330
44
100
AcDbEntity
  8
1
  6
Continuous
 62
     7
100
AcDbLine
 10
865.135484105437
 20
1039.07946535194
 30
0.0
 11
865.135484105437
 21
1041.32946535194
 31
0.0
  0
LINE
  5
177
330
44
100
AcDbEntity
  8
1
  6
Continuous
 62
     7
100
AcDbLine
 10
865.857171941924
 20
1041.32946535194
 30
0.0
 11
865.857171941924
 21
1039.07946535194
 31
0.0
  0
LINE
  5
178
330
44
100
AcDbEntity
  8
1
  6
Continuous
 62
     7
100
AcDbLine
 10
866.107171941924
 20
1039.07946535194
 30
0.0
 11
866.107171941924
 21
1041.32946535194
 31
0.0
  0
LINE
  5
179
330
44
100
AcDbEntity
  8
1
  6
Continuous
 62
     7
100
AcDbLine
 10
870.982171941924
 20
1039.07946535194
 30
0.0
 11
860.982171941924
 21
1039.07946535194
 31
0.0
  0
LINE
  5
17A
330
44
100
AcDbEntity
  8
1
  6
Continuous
 62
     7
100
AcDbLine
 10
870.607171941924
 20
1039.07946535194
 30
0.0
 11
870.607171941924
 21
1041.32946535194
 31
0.0
  0
LINE
  5
17B
330
44
100
AcDbEntity
  8
1
  6
Continuous
 62
     7
100
AcDbLine
 10
870.357171941924
 20
1041.32946535194
 30
0.0
 11
870.357171941924
 21
1039.07946535194
 31
0.0
  0
LINE
  5
17C
330
44
100
AcDbEntity
  8
1
  6
Continuous
 62
     7
100
AcDbLine
 10
868.482171941924
 20
1037.82946535194
 30
0.0
 11
868.482171941924
 21
1037.07946535194
 31
0.0
  0
LINE
  5
17D
330
44
100
AcDbEntity
  8
1
  6
Continuous
 62
     7
100
AcDbLine
 10
866.828859778411
 20
1041.32946535194
 30
0.0
 11
866.828859778411
 21
1039.07946535194
 31
0.0
  0
LINE
  5
17E
330
44
100
AcDbEntity
  8
1
  6
Continuous
 62
     7
100
AcDbLine
 10
867.385484105437
 20
1039.07946535194
 30
0.0
 11
867.385484105437
 21
1041.32946535194
 31
0.0
  0
LINE
  5
17F
330
44
100
AcDbEntity
  8
1
  6
Continuous
 62
     7
100
AcDbLine
 10
868.107171941924
 20
1041.32946535194
 30
0.0
 11
868.107171941924
 21
1039.07946535194
 31
0.0
  0
LINE
  5
180
330
44
100
AcDbEntity
  8
1
  6
Continuous
 62
     7
100
AcDbLine
 10
868.357171941924
 20
1039.07946535194
 30
0.0
 11
868.357171941924
 21
1041.32946535194
 31
0.0
  0
LINE
  5
181
330
44
100
AcDbEntity
  8
1
  6
Continuous
 62
     7
100
AcDbLine
 10
869.078859778411
 20
1041.32946535194
 30
0.0
 11
869.078859778411
 21
1039.07946535194
 31
0.0
  0
LINE
  5
182
330
44
100
AcDbEntity
  8
1
  6
Continuous
 62
     7
100
AcDbLine
 10
869.635484105437
 20
1039.07946535194
 30
0.0
 11
869.635484105437
 21
1041.32946535194
 31
0.0
  0
LINE
  5
183
330
44
100
AcDbEntity
  8
1
  6
Continuous
 62
     7
100
AcDbLine
 10
860.982171941924
 20
1041.32946535194
 30
0.0
 11
870.982171941924
 21
1041.32946535194
 31
0.0
  0
LINE
  5
184
330
44
100
AcDbEntity
  8
1
  6
Continuous
 62
     7
100
AcDbLine
 10
870.982171941924
 20
1037.07946535194
 30
0.0
 11
870.982171941924
 21
1047.32946535194
 31
0.0
  0
LINE
  5
185
330
44
100
AcDbEntity
  8
1
  6
Continuous
 62
     7
100
AcDbLine
 10
860.982171941924
 20
1047.32946535194
 30
0.0
 11
860.982171941924
 21
1037.07946535194
 31
0.0
  0
LINE
  5
186
330
44
100
AcDbEntity
  8
1
  6
Continuous
 62
     7
100
AcDbLine
 10
875.982171941924
 20
1047.32946535194
 30
0.0
 11
875.982171941924
 21
1037.07946535194
 31
0.0
  0
LINE
  5
187
330
44
100
AcDbEntity
  8
1
  6
Continuous
 62
     7
100
AcDbLine
 10
885.982171941924
 20
1037.07946535194
 30
0.0
 11
885.982171941924
 21
1047.32946535194
 31
0.0
  0
LINE
  5
188
330
44
100
AcDbEntity
  8
1
  6
Continuous
 62
     7
100
AcDbLine
 10
875.982171941924
 20
1037.82946535194
 30
0.0
 11
885.982171941924
 21
1037.82946535194
 31
0.0
  0
LINE
  5
189
330
44
100
AcDbEntity
  8
1
  6
Continuous
 62
     7
100
AcDbLine
 10
858.232171941924
 20
1037.07946535194
 30
0.0
 11
858.232171941924
 21
1052.57946535194
 31
0.0
  0
LINE
  5
18A
330
44
100
AcDbEntity
  8
1
  6
Continuous
 62
     7
100
AcDbLine
 10
860.732171941924
 20
1055.07946535194
 30
0.0
 11
895.982171941924
 21
1055.07946535194
 31
0.0
  0
LINE
  5
18B
330
44
100
AcDbEntity
  8
2
  6
Continuous
 62
     7
100
AcDbLine
 10
946.23217194191
 20
1034.57946535194
 30
0.0
 11
946.232171941911
 21
1037.07946535194
 31
0.0
  0
LINE
  5
18C
330
44
100
AcDbEntity
  8
2
  6
Continuous
 62
     7
100
AcDbLine
 10
946.232171941911
 20
1037.07946535194
 30
0.0
 11
845.732171941911
 21
1037.07946535194
 31
0.0
  0
LINE
  5
18D
330
44
100
AcDbEntity
  8
1
  6
Continuous
 62
     7
100
AcDbLine
 10
928.482171941924
 20
1037.07946535194
 30
0.0
 11
928.482171941924
 21
1037.82946535194
 31
0.0
  0
LINE
  5
18E
330
44
100
AcDbEntity
  8
1
  6
Continuous
 62
     7
100
AcDbLine
 10
930.607171941923
 20
1039.07946535194
 30
0.0
 11
930.607171941923
 21
1041.32946535194
 31
0.0
  0
LINE
  5
18F
330
44
100
AcDbEntity
  8
1
  6
Continuous
 62
     7
100
AcDbLine
 10
920.982171941923
 20
1037.82946535194
 30
0.0
 11
930.982171941923
 21
1037.82946535194
 31
0.0
  0
LINE
  5
190
330
44
100
AcDbEntity
  8
2
  6
Continuous
 62
     7
100
AcDbLine
 10
857.582171941924
 20
1037.07946535194
 30
0.0
 11
934.382171941924
 21
1037.07946535194
 31
0.0
  0
LINE
  5
191
330
44
100
AcDbEntity
  8
1
  6
Continuous
 62
     7
100
AcDbLine
 10
930.357171941923
 20
1041.32946535194
 30
0.0
 11
930.357171941923
 21
1039.07946535194
 31
0.0
  0
LINE
  5
192
330
44
100
AcDbEntity
  8
1
  6
Continuous
 62
     7
100
AcDbLine
 10
929.635484105436
 20
1039.07946535194
 30
0.0
 11
929.635484105436
 21
1041.32946535194
 31
0.0
  0
LINE
  5
193
330
44
100
AcDbEntity
  8
1
  6
Continuous
 62
     7
100
AcDbLine
 10
929.078859778411
 20
1041.32946535194
 30
0.0
 11
929.07885977841
 21
1039.07946535194
 31
0.0
  0
LINE
  5
194
330
44
100
AcDbEntity
  8
1
  6
Continuous
 62
     7
100
AcDbLine
 10
928.357171941924
 20
1039.07946535194
 30
0.0
 11
928.357171941923
 21
1041.32946535194
 31
0.0
  0
LINE
  5
195
330
44
100
AcDbEntity
  8
1
  6
Continuous
 62
     7
100
AcDbLine
 10
928.107171941924
 20
1041.32946535194
 30
0.0
 11
928.107171941923
 21
1039.07946535194
 31
0.0
  0
LINE
  5
196
330
44
100
AcDbEntity
  8
1
  6
Continuous
 62
     7
100
AcDbLine
 10
927.385484105436
 20
1039.07946535194
 30
0.0
 11
927.385484105436
 21
1041.32946535194
 31
0.0
  0
LINE
  5
197
330
44
100
AcDbEntity
  8
2
  6
Continuous
 62
     7
100
AcDbLine
 10
845.73217194191
 20
1034.57946535194
 30
0.0
 11
863.482171941924
 21
1034.57946535194
 31
0.0
  0
LINE
  5
198
330
44
100
AcDbEntity
  8
2
  6
Continuous
 62
     7
100
AcDbLine
 10
895.982171941924
 20
1034.57946535194
 30
0.0
 11
895.982171941924
 21
1035.07946535194
 31
0.0
  0
LINE
  5
199
330
44
100
AcDbEntity
  8
2
  6
Continuous
 62
     7
100
AcDbLine
 10
946.232171941928
 20
1048.44661452533
 30
0.0
 11
946.232171941911
 21
1037.07946518128
 31
0.0
  0
LINE
  5
19A
330
44
100
AcDbEntity
  8
2
  6
Continuous
 62
     7
100
AcDbLine
 10
845.732171941928
 20
1048.44661469598
 30
0.0
 11
845.732171941911
 21
1037.07946535194
 31
0.0
  0
LINE
  5
19B
330
44
100
AcDbEntity
  8
1
  6
Continuous
 62
     7
100
AcDbLine
 10
926.828859778411
 20
1041.32946535194
 30
0.0
 11
926.82885977841
 21
1039.07946535194
 31
0.0
  0
LINE
  5
19C
330
44
100
AcDbEntity
  8
2
  6
Continuous
 62
     7
100
AcDbLine
 10
845.732171941911
 20
1037.07946535194
 30
0.0
 11
845.73217194191
 21
1034.57946535194
 31
0.0
  0
LINE
  5
19D
330
44
100
AcDbEntity
  8
1
  6
Continuous
 62
     7
100
AcDbLine
 10
926.107171941924
 20
1039.07946535194
 30
0.0
 11
926.107171941923
 21
1041.32946535194
 31
0.0
  0
LINE
  5
19E
330
44
100
AcDbEntity
  8
2
  6
Continuous
 62
     7
100
AcDbLine
 10
1019.71824293163
 20
1092.95370188979
 30
0.0
 11
1022.21824293163
 21
1092.95370188979
 31
0.0
  0
LINE
  5
19F
330
44
100
AcDbEntity
  8
2
  6
Continuous
 62
     7
100
AcDbLine
 10
858.982171941924
 20
1035.07946535194
 30
0.0
 11
932.982171941924
 21
1035.07946535194
 31
0.0
  0
LINE
  5
1A0
330
44
100
AcDbEntity
  8
1
  6
Continuous
 62
     7
100
AcDbLine
 10
925.857171941924
 20
1041.32946535194
 30
0.0
 11
925.857171941923
 21
1039.07946535194
 31
0.0
  0
LINE
  5
1A1
330
44
100
AcDbEntity
  8
2
  6
Continuous
 62
     7
100
AcDbLine
 10
858.482171941924
 20
1034.57946535194
 30
0.0
 11
858.982171941924
 21
1035.07946535194
 31
0.0
  0
LINE
  5
1A2
330
44
100
AcDbEntity
  8
2
  6
Continuous
 62
     7
100
AcDbLine
 10
928.482171941921
 20
1034.57946535194
 30
0.0
 11
946.23217194191
 21
1034.57946535194
 31
0.0
  0
LINE
  5
1A3
330
44
100
AcDbEntity
  8
2
  6
Continuous
 62
     7
100
AcDbLine
 10
909.732159258995
 20
1033.07946535194
 30
0.0
 11
909.732159258995
 21
1034.57946535194
 31
0.0
  0
LINE
  5
1A4
330
44
100
AcDbEntity
  8
2
  6
Continuous
 62
     7
100
AcDbLine
 10
868.482171941924
 20
1034.57946535194
 30
0.0
 11
923.482171941921
 21
1034.57946535194
 31
0.0
  0
LINE
  5
1A5
330
44
100
AcDbEntity
  8
2
  6
Continuous
 62
     7
100
AcDbLine
 10
888.482171941923
 20
1033.07946535194
 30
0.0
 11
888.482171941923
 21
1034.57946535194
 31
0.0
  0
LINE
  5
1A6
330
44
100
AcDbEntity
  8
2
  6
Continuous
 62
     7
100
AcDbLine
 10
863.482171941924
 20
1033.07946535194
 30
0.0
 11
868.482171941924
 21
1033.07946535194
 31
0.0
  0
LINE
  5
1A7
330
44
100
AcDbEntity
  8
2
  6
Continuous
 62
     7
100
AcDbLine
 10
923.482171941921
 20
1033.07946535194
 30
0.0
 11
928.482171941921
 21
1033.07946535194
 31
0.0
  0
LINE
  5
1A8
330
44
100
AcDbEntity
  8
2
  6
Continuous
 62
     7
100
AcDbLine
 10
923.482171941921
 20
1035.07946535194
 30
0.0
 11
923.482171941921
 21
1033.07946535194
 31
0.0
  0
LINE
  5
1A9
330
44
100
AcDbEntity
  8
2
  6
Continuous
 62
     7
100
AcDbLine
 10
928.482171941921
 20
1035.07946535194
 30
0.0
 11
928.482171941921
 21
1033.07946535194
 31
0.0
  0
LINE
  5
1AA
330
44
100
AcDbEntity
  8
1
  6
Continuous
 62
     7
100
AcDbLine
 10
930.982171941923
 20
1039.07946535194
 30
0.0
 11
920.982171941923
 21
1039.07946535194
 31
0.0
  0
LINE
  5
1AB
330
44
100
AcDbEntity
  8
1
  6
Continuous
 62
     7
100
AcDbLine
 10
921.357171941924
 20
1041.32946535194
 30
0.0
 11
921.357171941924
 21
1039.07946535194
 31
0.0
  0
LINE
  5
1AC
330
44
100
AcDbEntity
  8
1
  6
Continuous
 62
     7
100
AcDbLine
 10
921.607171941924
 20
1039.07946535194
 30
0.0
 11
921.607171941924
 21
1041.32946535194
 31
0.0
  0
LINE
  5
1AD
330
44
100
AcDbEntity
  8
1
  6
Continuous
 62
     7
100
AcDbLine
 10
923.482171941924
 20
1037.07946535194
 30
0.0
 11
923.482171941924
 21
1037.82946535194
 31
0.0
  0
LINE
  5
1AE
330
44
100
AcDbEntity
  8
2
  6
Continuous
 62
     7
100
AcDbLine
 10
903.482171941923
 20
1034.57946535194
 30
0.0
 11
903.482171941923
 21
1033.07946535194
 31
0.0
  0
LINE
  5
1AF
330
44
100
AcDbEntity
  8
2
  6
Continuous
 62
     7
100
AcDbLine
 10
882.232171941923
 20
1033.07946535194
 30
0.0
 11
882.232171941923
 21
1034.57946535194
 31
0.0
  0
LINE
  5
1B0
330
44
100
AcDbEntity
  8
1
  6
Continuous
 62
     7
100
AcDbLine
 10
925.135484105436
 20
1039.07946535194
 30
0.0
 11
925.135484105436
 21
1041.32946535194
 31
0.0
  0
LINE
  5
1B1
330
44
100
AcDbEntity
  8
1
  6
Continuous
 62
     7
100
AcDbLine
 10
924.578859778411
 20
1041.32946535194
 30
0.0
 11
924.578859778411
 21
1039.07946535194
 31
0.0
  0
LINE
  5
1B2
330
44
100
AcDbEntity
  8
1
  6
Continuous
 62
     7
100
AcDbLine
 10
923.857171941924
 20
1039.07946535194
 30
0.0
 11
923.857171941924
 21
1041.32946535194
 31
0.0
  0
LINE
  5
1B3
330
44
100
AcDbEntity
  8
1
  6
Continuous
 62
     7
100
AcDbLine
 10
923.607171941924
 20
1041.32946535194
 30
0.0
 11
923.607171941924
 21
1039.07946535194
 31
0.0
  0
LINE
  5
1B4
330
44
100
AcDbEntity
  8
1
  6
Continuous
 62
     7
100
AcDbLine
 10
922.885484105437
 20
1039.07946535194
 30
0.0
 11
922.885484105437
 21
1041.32946535194
 31
0.0
  0
LINE
  5
1B5
330
44
100
AcDbEntity
  8
1
  6
Continuous
 62
     7
100
AcDbLine
 10
922.328859778411
 20
1041.32946535194
 30
0.0
 11
922.328859778411
 21
1039.07946535194
 31
0.0
  0
LINE
  5
1B6
330
44
100
AcDbEntity
  8
2
  6
Continuous
 62
     7
100
AcDbLine
 10
903.482159258995
 20
1033.07946535194
 30
0.0
 11
909.732159258995
 21
1033.07946535194
 31
0.0
  0
LINE
  5
1B7
330
44
100
AcDbEntity
  8
2
  6
Continuous
 62
     7
100
AcDbLine
 10
863.482171941924
 20
1035.07946535194
 30
0.0
 11
863.482171941924
 21
1033.07946535194
 31
0.0
  0
LINE
  5
1B8
330
44
100
AcDbEntity
  8
1
  6
Continuous
 62
     7
100
AcDbLine
 10
920.982171941923
 20
1041.32946535194
 30
0.0
 11
930.982171941923
 21
1041.32946535194
 31
0.0
  0
LINE
  5
1B9
330
44
100
AcDbEntity
  8
2
  6
Continuous
 62
     7
100
AcDbLine
 10
888.482171941923
 20
1033.07946535194
 30
0.0
 11
882.232171941923
 21
1033.07946535194
 31
0.0
  0
LINE
  5
1BA
330
44
100
AcDbEntity
  8
2
  6
Continuous
 62
     7
100
AcDbLine
 10
868.482171941924
 20
1035.07946535194
 30
0.0
 11
868.482171941924
 21
1033.07946535194
 31
0.0
  0
LINE
  5
1BB
330
44
100
AcDbEntity
  8
1
  6
Continuous
 62
     7
100
AcDbLine
 10
920.982171941923
 20
1047.32946535194
 30
0.0
 11
920.982171941923
 21
1037.07946535194
 31
0.0
  0
LINE
  5
1BC
330
44
100
AcDbEntity
  8
1
  6
Continuous
 62
     7
100
AcDbLine
 10
895.982171941924
 20
1055.07946535194
 30
0.0
 11
931.232171941923
 21
1055.07946535194
 31
0.0
  0
LINE
  5
1BD
330
44
100
AcDbEntity
  8
1
  6
Continuous
 62
     7
100
AcDbLine
 10
933.732171941923
 20
1052.57946535194
 30
0.0
 11
933.732171941923
 21
1037.07946535194
 31
0.0
  0
LINE
  5
1BE
330
44
100
AcDbEntity
  8
1
  6
Continuous
 62
     7
100
AcDbLine
 10
930.982171941923
 20
1037.07946535194
 30
0.0
 11
930.982171941923
 21
1047.32946535194
 31
0.0
  0
LINE
  5
1BF
330
44
100
AcDbEntity
  8
1
  6
Continuous
 62
     7
100
AcDbLine
 10
915.982171941924
 20
1037.07946535194
 30
0.0
 11
915.982171941924
 21
1047.32946535194
 31
0.0
  0
LINE
  5
1C0
330
44
100
AcDbEntity
  8
1
  6
Continuous
 62
     7
100
AcDbLine
 10
905.982171941924
 20
1047.32946535194
 30
0.0
 11
905.982171941924
 21
1037.07946535194
 31
0.0
  0
LINE
  5
1C1
330
44
100
AcDbEntity
  8
2
  6
Continuous
 62
     7
100
AcDbLine
 10
932.982171941924
 20
1035.07946535194
 30
0.0
 11
933.482171941924
 21
1034.57946535194
 31
0.0
  0
LINE
  5
1C2
330
44
100
AcDbEntity
  8
2
  6
Continuous
 62
     7
100
AcDbLine
 10
946.232171941923
 20
1048.44661469598
 30
0.0
 11
946.232171941911
 21
1037.07946535194
 31
0.0
  0
LINE
  5
1C3
330
44
100
AcDbEntity
  8
1
  6
Continuous
 62
     7
100
AcDbLine
 10
905.982171941924
 20
1037.82946535194
 30
0.0
 11
915.982171941924
 21
1037.82946535194
 31
0.0
  0
LINE
  5
1C4
330
44
100
AcDbEntity
  8
1
  6
DASHED
 62
     7
100
AcDbLine
 10
1129.1045914797
 20
1218.38671459168
 30
0.0
 11
1129.1045914797
 21
1215.41816798385
 31
0.0
  0
LINE
  5
1C5
330
44
100
AcDbEntity
  8
1
  6
DASHED
 62
     7
100
AcDbLine
 10
1123.6045914797
 20
1231.95370188979
 30
0.0
 11
1128.37235843266
 21
1227.18593493682
 31
0.0
  0
LINE
  5
1C6
330
44
100
AcDbEntity
  8
1
  6
DASHED
 62
     7
100
AcDbLine
 10
1117.8545914797
 20
1230.95370188979
 30
0.0
 11
1117.8545914797
 21
1230.51495138938
 31
0.0
  0
LINE
  5
1C7
330
44
100
AcDbEntity
  8
1
  6
DASHED
 62
     7
100
AcDbLine
 10
1115.3545914797
 20
1230.95370188979
 30
0.0
 11
1115.3545914797
 21
1230.51495138938
 31
0.0
  0
LINE
  5
1C8
330
44
100
AcDbEntity
  8
1
  6
DASHED
 62
     7
100
AcDbLine
 10
1104.83682452673
 20
1227.18593493682
 30
0.0
 11
1111.37235843266
 21
1233.72146884275
 31
0.0
  0
LINE
  5
1C9
330
44
100
AcDbEntity
  8
1
  6
DASHED
 62
     7
100
AcDbLine
 10
1121.83682452673
 20
1233.72146884275
 30
0.0
 11
1123.6045914797
 21
1231.95370188979
 31
0.0
  0
LINE
  5
1CA
330
44
100
AcDbEntity
  8
1
  6
DASHED
 62
     7
100
AcDbLine
 10
1113.14012538563
 20
1234.45370188979
 30
0.0
 11
1120.06905757376
 21
1234.45370188979
 31
0.0
  0
LINE
  5
1CB
330
44
100
AcDbEntity
  8
1
  6
DASHED
 62
     7
100
AcDbLine
 10
1129.1045914797
 20
1218.38671459168
 30
0.0
 11
1129.1045914797
 21
1225.41816798385
 31
0.0
  0
LINE
  5
1CC
330
44
100
AcDbEntity
  8
1
  6
Continuous
 62
     7
100
AcDbLine
 10
933.982171941924
 20
1145.70370188978
 30
0.0
 11
933.982171941924
 21
1193.20370188978
 31
0.0
  0
LINE
  5
1CD
330
44
100
AcDbEntity
  8
1
  6
Continuous
 62
     7
100
AcDbLine
 10
933.982171941924
 20
1143.70370188978
 30
0.0
 11
935.982171941924
 21
1143.70370188978
 31
0.0
  0
LINE
  5
1CE
330
44
100
AcDbEntity
  8
1
  6
Continuous
 62
     7
100
AcDbLine
 10
931.982171941924
 20
1195.20370188978
 30
0.0
 11
859.982171941924
 21
1195.20370188978
 31
0.0
  0
LINE
  5
1CF
330
44
100
AcDbEntity
  8
1
  6
Continuous
 62
     7
100
AcDbLine
 10
857.982171941924
 20
1193.20370188978
 30
0.0
 11
857.982171941924
 21
1145.70370188978
 31
0.0
  0
LINE
  5
1D0
330
44
100
AcDbEntity
  8
1
  6
Continuous
 62
     7
100
AcDbLine
 10
859.982171941924
 20
1143.70370188978
 30
0.0
 11
931.982171941924
 21
1143.70370188978
 31
0.0
  0
LINE
  5
1D1
330
44
100
AcDbEntity
  8
1
  6
Continuous
 62
     7
100
AcDbLine
 10
933.982171941924
 20
1143.70370188978
 30
0.0
 11
857.982171941924
 21
1143.70370188978
 31
0.0
  0
ARC
  5
1D2
330
44
100
AcDbEntity
  8
1
  6
Continuous
 62
     7
100
AcDbCircle
 10
1109.7045914797
 20
1209.55370188979
 30
0.0
 40
0.3333333333398514
100
AcDbArc
 50
180.0
 51
270.0
  0
ARC
  5
1D3
330
44
100
AcDbEntity
  8
1
  6
Continuous
 62
     7
100
AcDbCircle
 10
1108.5045914797
 20
1209.55370188979
 30
0.0
 40
0.3333333333400788
100
AcDbArc
 50
270.0
 51
0.0
  0
ARC
  5
1D4
330
44
100
AcDbEntity
  8
1
  6
Continuous
 62
     7
100
AcDbCircle
 10
1108.5045914797
 20
1208.35370188979
 30
0.0
 40
0.3333333333300743
100
AcDbArc
 50
0.0
 51
90.0
  0
ARC
  5
1D5
330
44
100
AcDbEntity
  8
1
  6
Continuous
 62
     7
100
AcDbCircle
 10
1109.7045914797
 20
1208.35370188979
 30
0.0
 40
0.3333333333298469
100
AcDbArc
 50
90.0
 51
180.0
  0
ARC
  5
1D6
330
44
100
AcDbEntity
  8
1
  6
Continuous
 62
     7
100
AcDbCircle
 10
1124.7045914797
 20
1209.55370188979
 30
0.0
 40
0.3333333333398514
100
AcDbArc
 50
180.0
 51
270.0
  0
ARC
  5
1D7
330
44
100
AcDbEntity
  8
1
  6
Continuous
 62
     7
100
AcDbCircle
 10
1123.5045914797
 20
1209.55370188979
 30
0.0
 40
0.3333333333400788
100
AcDbArc
 50
270.0
 51
0.0
  0
ARC
  5
1D8
330
44
100
AcDbEntity
  8
1
  6
Continuous
 62
     7
100
AcDbCircle
 10
1123.5045914797
 20
1208.35370188979
 30
0.0
 40
0.3333333333300743
100
AcDbArc
 50
0.0
 51
90.0
  0
ARC
  5
1D9
330
44
100
AcDbEntity
  8
1
  6
Continuous
 62
     7
100
AcDbCircle
 10
1124.7045914797
 20
1208.35370188979
 30
0.0
 40
0.3333333333298469
100
AcDbArc
 50
90.0
 51
180.0
  0
ARC
  5
1DA
330
44
100
AcDbEntity
  8
1
  6
Continuous
 62
     7
100
AcDbCircle
 10
855.532799120013
 20
1103.65370188979
 30
0.0
 40
0.25
100
AcDbArc
 50
270.0
 51
0.0
  0
ARC
  5
1DB
330
44
100
AcDbEntity
  8
1
  6
Continuous
 62
     7
100
AcDbCircle
 10
856.432799120013
 20
1103.65370188979
 30
0.0
 40
0.25
100
AcDbArc
 50
180.0
 51
270.0
  0
ARC
  5
1DC
330
44
100
AcDbEntity
  8
1
  6
Continuous
 62
     7
100
AcDbCircle
 10
856.432799120013
 20
1102.75370188978
 30
0.0
 40
0.25
100
AcDbArc
 50
90.0
 51
180.0
  0
ARC
  5
1DD
330
44
100
AcDbEntity
  8
1
  6
Continuous
 62
     7
100
AcDbCircle
 10
855.532799120013
 20
1102.75370188978
 30
0.0
 40
0.25
100
AcDbArc
 50
0.0
 51
90.0
  0
ARC
  5
1DE
330
44
100
AcDbEntity
  8
1
  6
Continuous
 62
     7
100
AcDbCircle
 10
936.431544763835
 20
1103.65370188979
 30
0.0
 40
0.25
100
AcDbArc
 50
180.0
 51
270.0
  0
ARC
  5
1DF
330
44
100
AcDbEntity
  8
1
  6
Continuous
 62
     7
100
AcDbCircle
 10
935.531544763835
 20
1103.65370188979
 30
0.0
 40
0.25
100
AcDbArc
 50
270.0
 51
0.0
  0
ARC
  5
1E0
330
44
100
AcDbEntity
  8
1
  6
Continuous
 62
     7
100
AcDbCircle
 10
935.531544763835
 20
1102.75370188978
 30
0.0
 40
0.25
100
AcDbArc
 50
0.0
 51
90.0
  0
ARC
  5
1E1
330
44
100
AcDbEntity
  8
1
  6
Continuous
 62
     7
100
AcDbCircle
 10
936.431544763835
 20
1102.75370188978
 30
0.0
 40
0.25
100
AcDbArc
 50
90.0
 51
180.0
  0
ARC
  5
1E2
330
44
100
AcDbEntity
  8
1
  6
Continuous
 62
     7
100
AcDbCircle
 10
859.982171941924
 20
1193.20370188978
 30
0.0
 40
2.0
100
AcDbArc
 50
90.0
 51
180.0
  0
ARC
  5
1E3
330
44
100
AcDbEntity
  8
1
  6
Continuous
 62
     7
100
AcDbCircle
 10
931.982171941924
 20
1193.20370188978
 30
0.0
 40
2.0
100
AcDbArc
 50
0.0
 51
90.0
  0
ARC
  5
1E4
330
44
100
AcDbEntity
  8
1
  6
Continuous
 62
     7
100
AcDbCircle
 10
931.982171941924
 20
1145.70370188978
 30
0.0
 40
2.0
100
AcDbArc
 50
270.0
 51
0.0
  0
ARC
  5
1E5
330
44
100
AcDbEntity
  8
1
  6
Continuous
 62
     7
100
AcDbCircle
 10
859.982171941924
 20
1145.70370188978
 30
0.0
 40
2.0
100
AcDbArc
 50
180.0
 51
270.0
  0
ARC
  5
1E6
330
44
100
AcDbEntity
  8
2
  6
Continuous
 62
     7
100
AcDbCircle
 10
895.982170398998
 20
307.079465351938
 30
0.0
 40
751.7499999999981
100
AcDbArc
 50
86.83458251148004
 51
89.99999988240354
  0
ARC
  5
1E7
330
44
100
AcDbEntity
  8
1
  6
DASHED
 62
     7
100
AcDbCircle
 10
895.982171941594
 20
1230.95370189051
 30
0.0
 40
1.25
100
AcDbArc
 50
0.0
 51
180.0
  0
ARC
  5
1E8
330
44
100
AcDbEntity
  8
1
  6
DASHED
 62
     7
100
AcDbCircle
 10
895.982171941594
 20
1228.95370189051
 30
0.0
 40
2.000000000000198
100
AcDbArc
 50
128.6821874534849
 51
51.3178125465151
  0
ARC
  5
1E9
330
44
100
AcDbEntity
  8
1
  6
DASHED
 62
     7
100
AcDbCircle
 10
892.517705847856
 20
1231.95370188979
 30
0.0
 40
2.5
100
AcDbArc
 50
90.0
 51
135.0000000001106
  0
ARC
  5
1EA
330
44
100
AcDbEntity
  8
1
  6
DASHED
 62
     7
100
AcDbCircle
 10
899.44663803599
 20
1231.95370188979
 30
0.0
 40
2.499999999996001
100
AcDbArc
 50
44.99999999988762
 51
90.0
  0
ARC
  5
1EB
330
44
100
AcDbEntity
  8
1
  6
DASHED
 62
     7
100
AcDbCircle
 10
905.982171941923
 20
1225.41816798385
 30
0.0
 40
2.500000000001679
100
AcDbArc
 50
24.46980053899766
 51
45.00000000004974
  0
ARC
  5
1EC
330
44
100
AcDbEntity
  8
1
  6
DASHED
 62
     7
100
AcDbCircle
 10
885.982171941923
 20
1225.41816798385
 30
0.0
 40
2.500000000002351
100
AcDbArc
 50
134.9999999999337
 51
155.5301994609926
  0
ARC
  5
1ED
330
44
100
AcDbEntity
  8
1
  6
Continuous
 62
     7
100
AcDbCircle
 10
1079.8545914797
 20
1092.95370188978
 30
0.0
 40
1.0
100
AcDbArc
 50
180.0
 51
270.0
  0
ARC
  5
1EE
330
44
100
AcDbEntity
  8
1
  6
Continuous
 62
     7
100
AcDbCircle
 10
1153.3545914797
 20
1092.95370188978
 30
0.0
 40
1.0
100
AcDbArc
 50
270.0
 51
0.0
  0
ARC
  5
1EF
330
44
100
AcDbEntity
  8
1
  6
Continuous
 62
     7
100
AcDbCircle
 10
1108.1045914797
 20
1201.70370188979
 30
0.0
 40
0.5
100
AcDbArc
 50
270.0
 51
329.9999999998724
  0
ARC
  5
1F0
330
44
100
AcDbEntity
  8
1
  6
Continuous
 62
     7
100
AcDbCircle
 10
1123.1045914797
 20
1201.70370188979
 30
0.0
 40
0.5
100
AcDbArc
 50
270.0
 51
329.9999999998724
  0
ARC
  5
1F1
330
44
100
AcDbEntity
  8
1
  6
Continuous
 62
     7
100
AcDbCircle
 10
1104.3545914797
 20
1209.95370188979
 30
0.0
 40
0.5
100
AcDbArc
 50
180.0
 51
240.0000000004456
  0
ARC
  5
1F2
330
44
100
AcDbEntity
  8
1
  6
Continuous
 62
     7
100
AcDbCircle
 10
1128.8545914797
 20
1207.95370188979
 30
0.0
 40
0.5
100
AcDbArc
 50
0.0
 51
59.99999999987244
  0
ARC
  5
1F3
330
44
100
AcDbEntity
  8
1
  6
Continuous
 62
     7
100
AcDbCircle
 10
1124.1045914797
 20
1218.95370188979
 30
0.0
 40
2.5
100
AcDbArc
 50
0.0
 51
90.0
  0
ARC
  5
1F4
330
44
100
AcDbEntity
  8
1
  6
Continuous
 62
     7
100
AcDbCircle
 10
1109.1045914797
 20
1218.95370188979
 30
0.0
 40
2.5
100
AcDbArc
 50
90.0
 51
180.0
  0
ARC
  5
1F5
330
44
100
AcDbEntity
  8
1
  6
Continuous
 62
     7
100
AcDbCircle
 10
1116.6045914797
 20
1220.95370188979
 30
0.0
 40
1.25
100
AcDbArc
 50
0.0
 51
180.0
  0
ARC
  5
1F6
330
44
100
AcDbEntity
  8
1
  6
Continuous
 62
     7
100
AcDbCircle
 10
1116.6045914797
 20
1218.95370188979
 30
0.0
 40
1.999999999992566
100
AcDbArc
 50
128.68218745366
 51
51.31781254634004
  0
ARC
  5
1F7
330
44
100
AcDbEntity
  8
1
  6
Continuous
 62
     7
100
AcDbCircle
 10
1106.6045914797
 20
1215.41816798385
 30
0.0
 40
2.500000000005246
100
AcDbArc
 50
135.0
 51
180.0
  0
ARC
  5
1F8
330
44
100
AcDbEntity
  8
1
  6
Continuous
 62
     7
100
AcDbCircle
 10
1126.6045914797
 20
1215.41816798385
 30
0.0
 40
2.5
100
AcDbArc
 50
0.0
 51
45.00000000016582
  0
ARC
  5
1F9
330
44
100
AcDbEntity
  8
1
  6
Continuous
 62
     7
100
AcDbCircle
 10
1120.06905757376
 20
1221.95370188979
 30
0.0
 40
2.499999999998171
100
AcDbArc
 50
44.99999999983788
 51
90.0
  0
ARC
  5
1FA
330
44
100
AcDbEntity
  8
1
  6
Continuous
 62
     7
100
AcDbCircle
 10
1113.14012538563
 20
1221.95370188979
 30
0.0
 40
2.5
100
AcDbArc
 50
90.0
 51
135.0000000001621
  0
ARC
  5
1FB
330
44
100
AcDbEntity
  8
1
  6
Continuous
 62
     7
100
AcDbCircle
 10
1126.6045914797
 20
1203.95370188979
 30
0.0
 40
2.5
100
AcDbArc
 50
270.0
 51
0.0
  0
ARC
  5
1FC
330
44
100
AcDbEntity
  8
1
  6
Continuous
 62
     7
100
AcDbCircle
 10
1106.6045914797
 20
1203.95370188979
 30
0.0
 40
2.5
100
AcDbArc
 50
180.0
 51
270.0
  0
ARC
  5
1FD
330
44
100
AcDbEntity
  8
1
  6
Continuous
 62
     7
100
AcDbCircle
 10
1126.6045914797
 20
1205.70370188979
 30
0.0
 40
2.750000000000414
100
AcDbArc
 50
335.3800226713241
 51
0.0
  0
ARC
  5
1FE
330
44
100
AcDbEntity
  8
1
  6
Continuous
 62
     7
100
AcDbCircle
 10
1106.6045914797
 20
1203.95370188979
 30
0.0
 40
2.75
100
AcDbArc
 50
180.0
 51
270.0
  0
ARC
  5
1FF
330
44
100
AcDbEntity
  8
1
  6
Continuous
 62
     7
100
AcDbCircle
 10
1126.6045914797
 20
1203.95370188979
 30
0.0
 40
2.75
100
AcDbArc
 50
270.0
 51
0.0
  0
ARC
  5
200
330
44
100
AcDbEntity
  8
1
  6
Continuous
 62
     7
100
AcDbCircle
 10
1106.6045914797
 20
1203.95370188979
 30
0.0
 40
3.75
100
AcDbArc
 50
180.0
 51
270.0
  0
ARC
  5
201
330
44
100
AcDbEntity
  8
1
  6
Continuous
 62
     7
100
AcDbCircle
 10
1106.6045914797
 20
1203.95370188979
 30
0.0
 40
3.75
100
AcDbArc
 50
180.0
 51
270.0
  0
ARC
  5
202
330
44
100
AcDbEntity
  8
1
  6
Continuous
 62
     7
100
AcDbCircle
 10
1126.6045914797
 20
1203.95370188979
 30
0.0
 40
3.75
100
AcDbArc
 50
270.0
 51
0.0
  0
ARC
  5
203
330
44
100
AcDbEntity
  8
1
  6
Continuous
 62
     7
100
AcDbCircle
 10
1127.8545914797
 20
1223.45370188979
 30
0.0
 40
1.5
100
AcDbArc
 50
0.0
 51
90.0
  0
ARC
  5
204
330
44
100
AcDbEntity
  8
1
  6
Continuous
 62
     7
100
AcDbCircle
 10
1105.3545914797
 20
1223.45370188979
 30
0.0
 40
1.5
100
AcDbArc
 50
90.0
 51
180.0
  0
ARC
  5
205
330
44
100
AcDbEntity
  8
1
  6
Continuous
 62
     7
100
AcDbCircle
 10
1108.1045914797
 20
1224.45370188979
 30
0.0
 40
0.5
100
AcDbArc
 50
0.0
 51
90.0
  0
ARC
  5
206
330
44
100
AcDbEntity
  8
1
  6
Continuous
 62
     7
100
AcDbCircle
 10
1108.1045914797
 20
1221.78212901453
 30
0.0
 40
0.4999999999967547
100
AcDbArc
 50
289.4712206338023
 51
0.0
  0
ARC
  5
207
330
44
100
AcDbEntity
  8
1
  6
Continuous
 62
     7
100
AcDbCircle
 10
1106.27616435495
 20
1219.95370188979
 30
0.0
 40
0.5
100
AcDbArc
 50
270.0
 51
340.5287793651168
  0
ARC
  5
208
330
44
100
AcDbEntity
  8
1
  6
Continuous
 62
     7
100
AcDbCircle
 10
1104.3545914797
 20
1217.95370188979
 30
0.0
 40
0.5
100
AcDbArc
 50
90.0
 51
180.0
  0
ARC
  5
209
330
44
100
AcDbEntity
  8
1
  6
Continuous
 62
     7
100
AcDbCircle
 10
1104.3545914797
 20
1219.95370188979
 30
0.0
 40
0.5
100
AcDbArc
 50
180.0
 51
270.0
  0
ARC
  5
20A
330
44
100
AcDbEntity
  8
1
  6
Continuous
 62
     7
100
AcDbCircle
 10
1110.1045914797
 20
1224.45370188979
 30
0.0
 40
0.5
100
AcDbArc
 50
90.0
 51
180.0
  0
ARC
  5
20B
330
44
100
AcDbEntity
  8
1
  6
Continuous
 62
     7
100
AcDbCircle
 10
1125.1045914797
 20
1224.45370188979
 30
0.0
 40
0.5
100
AcDbArc
 50
90.0
 51
180.0
  0
ARC
  5
20C
330
44
100
AcDbEntity
  8
1
  6
Continuous
 62
     7
100
AcDbCircle
 10
1125.1045914797
 20
1221.78212901453
 30
0.0
 40
0.5
100
AcDbArc
 50
180.0
 51
250.5287793650923
  0
ARC
  5
20D
330
44
100
AcDbEntity
  8
1
  6
Continuous
 62
     7
100
AcDbCircle
 10
1126.93301860444
 20
1219.95370188979
 30
0.0
 40
0.5000000000000895
100
AcDbArc
 50
199.4712206348832
 51
270.0
  0
ARC
  5
20E
330
44
100
AcDbEntity
  8
1
  6
Continuous
 62
     7
100
AcDbCircle
 10
1128.8545914797
 20
1217.95370188979
 30
0.0
 40
0.5
100
AcDbArc
 50
0.0
 51
90.0
  0
ARC
  5
20F
330
44
100
AcDbEntity
  8
1
  6
Continuous
 62
     7
100
AcDbCircle
 10
1128.8545914797
 20
1219.95370188979
 30
0.0
 40
0.5
100
AcDbArc
 50
270.0
 51
0.0
  0
ARC
  5
210
330
44
100
AcDbEntity
  8
1
  6
Continuous
 62
     7
100
AcDbCircle
 10
1123.1045914797
 20
1224.45370188979
 30
0.0
 40
0.5
100
AcDbArc
 50
0.0
 51
90.0
  0
ARC
  5
211
330
44
100
AcDbEntity
  8
1
  6
Continuous
 62
     7
100
AcDbCircle
 10
1104.3545914797
 20
1207.95370188979
 30
0.0
 40
0.4999999999980719
100
AcDbArc
 50
120.0000000001276
 51
180.0
  0
ARC
  5
212
330
44
100
AcDbEntity
  8
1
  6
Continuous
 62
     7
100
AcDbCircle
 10
1110.1045914797
 20
1201.70370188979
 30
0.0
 40
0.5000000000067361
100
AcDbArc
 50
209.9999999995543
 51
270.0
  0
ARC
  5
213
330
44
100
AcDbEntity
  8
1
  6
Continuous
 62
     7
100
AcDbCircle
 10
1128.8545914797
 20
1209.95370188979
 30
0.0
 40
0.5000000000067361
100
AcDbArc
 50
299.9999999995543
 51
0.0
  0
ARC
  5
214
330
44
100
AcDbEntity
  8
1
  6
Continuous
 62
     7
100
AcDbCircle
 10
1125.1045914797
 20
1201.70370188979
 30
0.0
 40
0.5000000000067361
100
AcDbArc
 50
209.9999999995543
 51
270.0
  0
ARC
  5
215
330
44
100
AcDbEntity
  8
1
  6
Continuous
 62
     7
100
AcDbCircle
 10
1155.10459147959
 20
1105.20370188979
 30
0.0
 40
10.25
100
AcDbArc
 50
270.0
 51
0.0
  0
ARC
  5
216
330
44
100
AcDbEntity
  8
1
  6
Continuous
 62
     7
100
AcDbCircle
 10
1078.1045914796
 20
1105.20370188979
 30
0.0
 40
10.25
100
AcDbArc
 50
180.0
 51
270.0
  0
ARC
  5
217
330
44
100
AcDbEntity
  8
1
  6
Continuous
 62
     7
100
AcDbCircle
 10
1078.1045914796
 20
1104.70370188979
 30
0.0
 40
10.25
100
AcDbArc
 50
180.0
 51
270.0
  0
ARC
  5
218
330
44
100
AcDbEntity
  8
1
  6
Continuous
 62
     7
100
AcDbCircle
 10
1155.10459147959
 20
1104.70370188979
 30
0.0
 40
10.25
100
AcDbArc
 50
270.0
 51
0.0
  0
ARC
  5
219
330
44
100
AcDbEntity
  8
1
  6
Continuous
 62
     7
100
AcDbCircle
 10
1156.98413776438
 20
1218.95370188979
 30
0.0
 40
7.499999999996503
100
AcDbArc
 50
1.99999999993506
 51
90.0
  0
ARC
  5
21A
330
44
100
AcDbEntity
  8
1
  6
Continuous
 62
     7
100
AcDbCircle
 10
1155.10459147959
 20
1104.70370188979
 30
0.0
 40
11.75
100
AcDbArc
 50
270.0
 51
0.0
  0
ARC
  5
21B
330
44
100
AcDbEntity
  8
1
  6
Continuous
 62
     7
100
AcDbCircle
 10
1076.22504519499
 20
1218.95370188979
 30
0.0
 40
7.5
100
AcDbArc
 50
90.0
 51
178.0000000000649
  0
ARC
  5
21C
330
44
100
AcDbEntity
  8
1
  6
Continuous
 62
     7
100
AcDbCircle
 10
1078.1045914796
 20
1104.70370188979
 30
0.0
 40
11.75
100
AcDbArc
 50
180.0
 51
270.0
  0
ARC
  5
21D
330
44
100
AcDbEntity
  8
1
  6
Continuous
 62
     7
100
AcDbCircle
 10
1076.22504519499
 20
1218.95370188979
 30
0.0
 40
6.0
100
AcDbArc
 50
90.0
 51
178.0000000000447
  0
ARC
  5
21E
330
44
100
AcDbEntity
  8
1
  6
Continuous
 62
     7
100
AcDbCircle
 10
1156.98413776438
 20
1218.95370188979
 30
0.0
 40
6.000000000005273
100
AcDbArc
 50
1.99999999995192
 51
90.0
  0
ARC
  5
21F
330
44
100
AcDbEntity
  8
1
  6
Continuous
 62
     7
100
AcDbCircle
 10
859.232171941925
 20
1092.95370188978
 30
0.0
 40
1.0
100
AcDbArc
 50
180.0
 51
270.0
  0
ARC
  5
220
330
44
100
AcDbEntity
  8
2
  6
Continuous
 62
     7
100
AcDbCircle
 10
857.482171941796
 20
1104.70370188979
 30
0.0
 40
11.75
100
AcDbArc
 50
180.0
 51
270.0
  0
ARC
  5
221
330
44
100
AcDbEntity
  8
2
  6
Continuous
 62
     7
100
AcDbCircle
 10
934.482171941796
 20
1104.70370188979
 30
0.0
 40
11.75
100
AcDbArc
 50
270.0
 51
0.0
  0
ARC
  5
222
330
44
100
AcDbEntity
  8
2
  6
Continuous
 62
     7
100
AcDbCircle
 10
855.602625657219
 20
1218.95370188979
 30
0.0
 40
7.5
100
AcDbArc
 50
90.0
 51
178.000000000066
  0
ARC
  5
223
330
44
100
AcDbEntity
  8
2
  6
Continuous
 62
     7
100
AcDbCircle
 10
936.361718226605
 20
1218.95370188979
 30
0.0
 40
7.499999999998435
100
AcDbArc
 50
1.99999999993455
 51
90.0
  0
ARC
  5
224
330
44
100
AcDbEntity
  8
2
  6
Continuous
 62
     7
100
AcDbCircle
 10
1260.2079051797
 20
1153.70370188979
 30
0.0
 40
249.9999999999935
100
AcDbArc
 50
164.8433879095332
 51
180.0
  0
ARC
  5
225
330
44
100
AcDbEntity
  8
2
  6
Continuous
 62
     7
100
AcDbCircle
 10
1028.55636190835
 20
1216.45370188979
 30
0.0
 40
10.0
100
AcDbArc
 50
90.0
 51
164.8433879096622
  0
ARC
  5
226
330
44
100
AcDbEntity
  8
2
  6
Continuous
 62
     7
100
AcDbCircle
 10
1014.82476422554
 20
1131.45370188979
 30
0.0
 40
9.999999999991203
100
AcDbArc
 50
15.28999135819287
 51
90.0
  0
ARC
  5
227
330
44
100
AcDbEntity
  8
2
  6
Continuous
 62
     7
100
AcDbCircle
 10
1019.4579051797
 20
1102.20370188979
 30
0.0
 40
9.25
100
AcDbArc
 50
180.0
 51
270.0
  0
ARC
  5
228
330
44
100
AcDbEntity
  8
1
  6
Continuous
 62
     7
100
AcDbCircle
 10
1016.2079051797
 20
1093.95370188979
 30
0.0
 40
2.0
100
AcDbArc
 50
180.0
 51
270.0
  0
ARC
  5
229
330
44
100
AcDbEntity
  8
1
  6
Continuous
 62
     7
100
AcDbCircle
 10
1014.63393570168
 20
1131.20370188979
 30
0.0
 40
10.00000000000096
100
AcDbArc
 50
15.28999135817758
 51
90.0
  0
ARC
  5
22A
330
44
100
AcDbEntity
  8
1
  6
Continuous
 62
     7
100
AcDbCircle
 10
932.732171941922
 20
1092.95370188978
 30
0.0
 40
1.0
100
AcDbArc
 50
270.0
 51
0.0
  0
ARC
  5
22B
330
44
100
AcDbEntity
  8
1
  6
Continuous
 62
     7
100
AcDbCircle
 10
1014.63393570168
 20
1131.20370188979
 30
0.0
 40
9.750000000001801
100
AcDbArc
 50
15.2899913582216
 51
90.0
  0
ARC
  5
22C
330
44
100
AcDbEntity
  8
1
  6
Continuous
 62
     7
100
AcDbCircle
 10
895.982171941924
 20
1047.32946535194
 30
0.0
 40
5.0
100
AcDbArc
 50
0.0
 51
180.0
  0
ARC
  5
22D
330
44
100
AcDbEntity
  8
1
  6
Continuous
 62
     7
100
AcDbCircle
 10
895.982171941924
 20
1047.32946535194
 30
0.0
 40
5.0
100
AcDbArc
 50
180.0
 51
0.0
  0
ARC
  5
22E
330
44
100
AcDbEntity
  8
1
  6
Continuous
 62
     7
100
AcDbCircle
 10
865.982171941924
 20
1047.32946535194
 30
0.0
 40
5.0
100
AcDbArc
 50
0.0
 51
180.0
  0
ARC
  5
22F
330
44
100
AcDbEntity
  8
1
  6
Continuous
 62
     7
100
AcDbCircle
 10
865.982171941924
 20
1047.32946535194
 30
0.0
 40
5.0
100
AcDbArc
 50
180.0
 51
0.0
  0
ARC
  5
230
330
44
100
AcDbEntity
  8
1
  6
Continuous
 62
     7
100
AcDbCircle
 10
880.982171941924
 20
1047.32946535194
 30
0.0
 40
5.0
100
AcDbArc
 50
180.0
 51
0.0
  0
ARC
  5
231
330
44
100
AcDbEntity
  8
1
  6
Continuous
 62
     7
100
AcDbCircle
 10
880.982171941924
 20
1047.32946535194
 30
0.0
 40
5.0
100
AcDbArc
 50
0.0
 51
180.0
  0
ARC
  5
232
330
44
100
AcDbEntity
  8
1
  6
Continuous
 62
     7
100
AcDbCircle
 10
860.732171941924
 20
1052.57946535194
 30
0.0
 40
2.5
100
AcDbArc
 50
90.0
 51
180.0
  0
ARC
  5
233
330
44
100
AcDbEntity
  8
1
  6
Continuous
 62
     7
100
AcDbCircle
 10
910.982171941924
 20
1047.32946535194
 30
0.0
 40
5.0
100
AcDbArc
 50
180.0
 51
0.0
  0
ARC
  5
234
330
44
100
AcDbEntity
  8
2
  6
Continuous
 62
     7
100
AcDbCircle
 10
936.982171941928
 20
1048.44661452533
 30
0.0
 40
9.25
100
AcDbArc
 50
0.0
 51
86.8345825114765
  0
ARC
  5
235
330
44
100
AcDbEntity
  8
2
  6
Continuous
 62
     7
100
AcDbCircle
 10
854.982171941928
 20
1048.44661469598
 30
0.0
 40
9.250000000001462
100
AcDbArc
 50
93.1654172515123
 51
180.0
  0
ARC
  5
236
330
44
100
AcDbEntity
  8
2
  6
Continuous
 62
     7
100
AcDbCircle
 10
895.982170398998
 20
307.079465351938
 30
0.0
 40
751.7500000000019
100
AcDbArc
 50
89.99999988240354
 51
93.16541725020006
  0
ARC
  5
237
330
44
100
AcDbEntity
  8
1
  6
Continuous
 62
     7
100
AcDbCircle
 10
925.982171941923
 20
1047.32946535194
 30
0.0
 40
5.0
100
AcDbArc
 50
0.0
 51
180.0
  0
ARC
  5
238
330
44
100
AcDbEntity
  8
1
  6
Continuous
 62
     7
100
AcDbCircle
 10
910.982171941924
 20
1047.32946535194
 30
0.0
 40
5.0
100
AcDbArc
 50
0.0
 51
180.0
  0
ARC
  5
239
330
44
100
AcDbEntity
  8
1
  6
Continuous
 62
     7
100
AcDbCircle
 10
931.232171941923
 20
1052.57946535194
 30
0.0
 40
2.5
100
AcDbArc
 50
0.0
 51
90.0
  0
ARC
  5
23A
330
44
100
AcDbEntity
  8
1
  6
Continuous
 62
     7
100
AcDbCircle
 10
925.982171941923
 20
1047.32946535194
 30
0.0
 40
5.0
100
AcDbArc
 50
180.0
 51
0.0
  0
ARC
  5
23B
330
44
100
AcDbEntity
  8
1
  6
DASHED
 62
     7
100
AcDbCircle
 10
1116.6045914797
 20
1230.95370188979
 30
0.0
 40
1.25
100
AcDbArc
 50
0.0
 51
180.0
  0
ARC
  5
23C
330
44
100
AcDbEntity
  8
1
  6
DASHED
 62
     7
100
AcDbCircle
 10
1116.6045914797
 20
1228.95370188979
 30
0.0
 40
1.999999999992566
100
AcDbArc
 50
128.68218745366
 51
51.31781254634004
  0
ARC
  5
23D
330
44
100
AcDbEntity
  8
1
  6
DASHED
 62
     7
100
AcDbCircle
 10
1106.6045914797
 20
1225.41816798385
 30
0.0
 40
2.500000000005246
100
AcDbArc
 50
135.0
 51
180.0
  0
ARC
  5
23E
330
44
100
AcDbEntity
  8
1
  6
DASHED
 62
     7
100
AcDbCircle
 10
1126.6045914797
 20
1225.41816798385
 30
0.0
 40
2.5
100
AcDbArc
 50
0.0
 51
45.00000000016582
  0
ARC
  5
23F
330
44
100
AcDbEntity
  8
1
  6
DASHED
 62
     7
100
AcDbCircle
 10
1120.06905757376
 20
1231.95370188979
 30
0.0
 40
2.499999999998171
100
AcDbArc
 50
44.99999999983788
 51
90.0
  0
ARC
  5
240
330
44
100
AcDbEntity
  8
1
  6
DASHED
 62
     7
100
AcDbCircle
 10
1113.14012538563
 20
1231.95370188979
 30
0.0
 40
2.5
100
AcDbArc
 50
90.0
 51
135.0000000001621
  0
CIRCLE
  5
241
330
44
100
AcDbEntity
  8
1
  6
Continuous
 62
     7
100
AcDbCircle
 10
1109.1045914797
 20
1208.95370188979
 30
0.0
 40
2.0
  0
CIRCLE
  5
242
330
44
100
AcDbEntity
  8
1
  6
Continuous
 62
     7
100
AcDbCircle
 10
855.982799120013
 20
1103.20370188979
 30
0.0
 40
1.5
  0
CIRCLE
  5
243
330
44
100
AcDbEntity
  8
1
  6
Continuous
 62
     7
100
AcDbCircle
 10
935.981544763835
 20
1103.20370188979
 30
0.0
 40
1.5
  0
CIRCLE
  5
244
330
44
100
AcDbEntity
  8
1
  6
Continuous
 62
     7
100
AcDbCircle
 10
1124.1045914797
 20
1208.95370188979
 30
0.0
 40
2.0
  0
CIRCLE
  5
245
330
44
100
AcDbEntity
  8
1
  6
Continuous
 62
     7
100
AcDbCircle
 10
1086.6045914797
 20
1114.95370188979
 30
0.0
 40
0.875
  0
CIRCLE
  5
246
330
44
100
AcDbEntity
  8
1
  6
Continuous
 62
     7
100
AcDbCircle
 10
1146.60459147969
 20
1114.95370188979
 30
0.0
 40
0.875
  0
CIRCLE
  5
247
330
44
100
AcDbEntity
  8
1
  6
Continuous
 62
     7
100
AcDbCircle
 10
1146.60459147969
 20
1114.95370188979
 30
0.0
 40
2.0
  0
CIRCLE
  5
248
330
44
100
AcDbEntity
  8
1
  6
Continuous
 62
     7
100
AcDbCircle
 10
1086.6045914797
 20
1114.95370188979
 30
0.0
 40
2.0
  0
CIRCLE
  5
249
330
44
100
AcDbEntity
  8
1
  6
Continuous
 62
     7
100
AcDbCircle
 10
1086.6045914797
 20
1104.95370188979
 30
0.0
 40
2.5
  0
CIRCLE
  5
24A
330
44
100
AcDbEntity
  8
1
  6
Continuous
 62
     7
100
AcDbCircle
 10
1146.60459147969
 20
1104.95370188979
 30
0.0
 40
2.5
  0
CIRCLE
  5
24B
330
44
100
AcDbEntity
  8
1
  6
Continuous
 62
     7
100
AcDbCircle
 10
1146.60459147969
 20
1104.95370188979
 30
0.0
 40
1.125
  0
CIRCLE
  5
24C
330
44
100
AcDbEntity
  8
1
  6
Continuous
 62
     7
100
AcDbCircle
 10
1086.6045914797
 20
1104.95370188979
 30
0.0
 40
1.125
  0
CIRCLE
  5
24D
330
44
100
AcDbEntity
  8
2
  6
Continuous
 62
     7
100
AcDbCircle
 10
935.982171941924
 20
1103.20370188979
 30
0.0
 40
2.125
  0
CIRCLE
  5
24E
330
44
100
AcDbEntity
  8
2
  6
Continuous
 62
     7
100
AcDbCircle
 10
855.982171941924
 20
1103.20370188979
 30
0.0
 40
2.125
  0
ENDBLK
  5
46
330
44
100
AcDbEntity
  8
0
100
AcDbBlockEnd
  0
BLOCK
  5
49
330
47
100
AcDbEntity
  8
0
100
AcDbBlockBegin
  2
G-KEM6000NT-A000A__1
 70
     0
 10
1472.63808016648
 20
1358.35356574132
 30
0.0
  3
G-KEM6000NT-A000A__1
  1

  0
INSERT
  5
48
330
47
100
AcDbEntity
  8
0
100
AcDbBlockReference
  2
NEW_WAKU_A3
 10
1472.638080166478
 20
1358.353565741323
 30
0.0
  0
ENDBLK
  5
4A
330
47
100
AcDbEntity
  8
0
100
AcDbBlockEnd
  0
BLOCK
  5
4D
330
4B
100
AcDbEntity
  8
0
100
AcDbBlockBegin
  2
G-KEM6000NT-A000A__2
 70
     0
 10
1335.23817549238
 20
1284.0152911799
 30
0.0
  3
G-KEM6000NT-A000A__2
  1

  0
INSERT
  5
4C
330
4B
100
AcDbEntity
  8
0
100
AcDbBlockReference
  2
G-KEM6000NT-A000A__1
 10
1472.63808016648
 20
1358.35356574132
 30
0.0
  0
ENDBLK
  5
4E
330
4B
100
AcDbEntity
  8
0
100
AcDbBlockEnd
  0
BLOCK
  5
51
330
4F
100
AcDbEntity
  8
0
100
AcDbBlockBegin
  2
G-KEM6000N-A080A
 70
     0
 10
588.013487029826
 20
852.376723886124
 30
0.0
  3
G-KEM6000N-A080A
  1

  0
INSERT
  5
50
330
4F
100
AcDbEntity
  8
0
100
AcDbBlockReference
  2
G-KEM6000NT-A000A__2
 10
1335.23817549238
 20
1284.0152911799
 30
0.0
  0
ENDBLK
  5
52
330
4F
100
AcDbEntity
  8
0
100
AcDbBlockEnd
  0
ENDSEC
  0
SECTION
  2
ENTITIES
  0
INSERT
  5
53
330
1F
100
AcDbEntity
  8
0
100
AcDbBlockReference
  2
G-KEM6000N-A080A
 10
588.013487029826
 20
852.376723886124
 30
0.0
  0
ENDSEC
  0
SECTION
  2
OBJECTS
  0
DICTIONARY
  5
C
330
0
100
AcDbDictionary
281
     1
  3
ACAD_GROUP
350
D
  3
ACAD_LAYOUT
350
1A
  3
ACAD_MLEADERSTYLE
350
250
  3
ACAD_MLINESTYLE
350
17
  3
ACAD_PLOTSETTINGS
350
19
  3
ACAD_PLOTSTYLENAME
350
E
  3
ACAD_TABLESTYLE
350
24F
  3
ACAD_VISUALSTYLE
350
2A
  0
DICTIONARY
  5
D
102
{ACAD_REACTORS
330
C
102
}
330
C
100
AcDbDictionary
281
     1
  0
DICTIONARY
  5
1A
102
{ACAD_REACTORS
330
C
102
}
330
C
100
AcDbDictionary
281
     1
  3
Layout1
350
1E
  3
Layout2
350
26
  3
Model
350
22
  0
DICTIONARY
  5
250
102
{ACAD_REACTORS
330
C
102
}
330
C
100
AcDbDictionary
281
     1
  0
DICTIONARY
  5
17
102
{ACAD_REACTORS
330
C
102
}
330
C
100
AcDbDictionary
281
     1
  3
Standard
350
18
  0
DICTIONARY
  5
19
102
{ACAD_REACTORS
330
C
102
}
330
C
100
AcDbDictionary
281
     1
  0
ACDBDICTIONARYWDFLT
  5
E
102
{ACAD_REACTORS
330
C
102
}
330
C
100
AcDbDictionary
281
     1
  3
Normal
350
F
100
AcDbDictionaryWithDefault
340
F
  0
DICTIONARY
  5
24F
102
{ACAD_REACTORS
330
C
102
}
330
C
100
AcDbDictionary
281
     1
  0
DICTIONARY
  5
2A
102
{ACAD_REACTORS
330
C
102
}
330
C
100
AcDbDictionary
281
     1
  3
2dWireframe
350
2F
  3
3D Hidden
350
31
  3
3dWireframe
350
30
  3
Basic
350
32
  3
Brighten
350
36
  3
ColorChange
350
3A
  3
Conceptual
350
34
  3
Dim
350
35
  3
Facepattern
350
39
  3
Flat
350
2B
  3
FlatWithEdges
350
2C
  3
Gouraud
350
2D
  3
GouraudWithEdges
350
2E
  3
Linepattern
350
38
  3
Realistic
350
33
  3
Thicken
350
37
  0
LAYOUT
  5
1E
102
{ACAD_REACTORS
330
1A
102
}
330
1A
100
AcDbPlotSettings
  1

  2
none_device
  4

  6

 40
0.0
 41
0.0
 42
0.0
 43
0.0
 44
0.0
 45
0.0
 46
0.0
 47
0.0
 48
0.0
 49
0.0
140
0.0
141
0.0
142
1.0
143
1.0
 70
   688
 72
     0
 73
     0
 74
     5
  7

 75
    16
 76
     0
 77
     2
 78
   300
147
1.0
148
0.0
149
0.0
100
AcDbLayout
  1
Layout1
 70
     1
 71
     1
 10
0.0
 20
0.0
 11
12.0
 21
9.0
 12
0.0
 22
0.0
 32
0.0
 14
1.00000000000000E+20
 24
1.00000000000000E+20
 34
1.00000000000000E+20
 15
-1.00000000000000E+20
 25
-1.00000000000000E+20
 35
-1.00000000000000E+20
146
0.0
 13
0.0
 23
0.0
 33
0.0
 16
1.0
 26
0.0
 36
0.0
 17
0.0
 27
1.0
 37
0.0
 76
     0
330
1B
  0
LAYOUT
  5
26
102
{ACAD_REACTORS
330
1A
102
}
330
1A
100
AcDbPlotSettings
  1

  2
none_device
  4

  6

 40
0.0
 41
0.0
 42
0.0
 43
0.0
 44
0.0
 45
0.0
 46
0.0
 47
0.0
 48
0.0
 49
0.0
140
0.0
141
0.0
142
1.0
143
1.0
 70
   688
 72
     0
 73
     0
 74
     5
  7

 75
    16
 76
     0
 77
     2
 78
   300
147
1.0
148
0.0
149
0.0
100
AcDbLayout
  1
Layout2
 70
     1
 71
     2
 10
0.0
 20
0.0
 11
0.0
 21
0.0
 12
0.0
 22
0.0
 32
0.0
 14
0.0
 24
0.0
 34
0.0
 15
0.0
 25
0.0
 35
0.0
146
0.0
 13
0.0
 23
0.0
 33
0.0
 16
1.0
 26
0.0
 36
0.0
 17
0.0
 27
1.0
 37
0.0
 76
     0
330
23
  0
LAYOUT
  5
22
102
{ACAD_REACTORS
330
1A
102
}
330
1A
100
AcDbPlotSettings
  1

  2
none_device
  4

  6

 40
0.0
 41
0.0
 42
0.0
 43
0.0
 44
0.0
 45
0.0
 46
0.0
 47
0.0
 48
0.0
 49
0.0
140
0.0
141
0.0
142
1.0
143
1.0
 70
  1712
 72
     0
 73
     0
 74
     0
  7

 75
     0
 76
     0
 77
     2
 78
   300
147
1.0
148
0.0
149
0.0
100
AcDbLayout
  1
Model
 70
     1
 71
     0
 10
0.0
 20
0.0
 11
12.0
 21
9.0
 12
0.0
 22
0.0
 32
0.0
 14
1512.211875045969
 24
1415.559456467673
 34
0.0
 15
1833.334294586783
 25
1616.933693005523
 35
0.0
146
0.0
 13
0.0
 23
0.0
 33
0.0
 16
1.0
 26
0.0
 36
0.0
 17
0.0
 27
1.0
 37
0.0
 76
     0
330
1F
331
29
  0
MLINESTYLE
  5
18
102
{ACAD_REACTORS
330
17
102
}
330
17
100
AcDbMlineStyle
  2
Standard
 70
     0
  3

 62
   256
 51
90.0
 52
90.0
 71
     2
 49
0.5
 62
   256
  6
BYLAYER
 49
-0.5
 62
   256
  6
BYLAYER
  0
ACDBPLACEHOLDER
  5
F
102
{ACAD_REACTORS
330
E
102
}
330
E
  0
VISUALSTYLE
  5
2F
102
{ACAD_REACTORS
330
2A
102
}
330
2A
100
AcDbVisualStyle
  2
2dWireframe
 70
     4
 71
     0
 72
     2
 73
     0
 90
        0
 40
-0.6
 41
-30.0
 62
     5
 63
     7
421
 16777215
 74
     1
 91
        4
 64
     7
 65
   257
 75
     1
175
     1
 42
1.0
 92
        0
 66
   257
 43
1.0
 76
     1
 77
     6
 78
     2
 67
     7
 79
     5
170
     0
171
     0
290
     0
174
     0
 93
        1
 44
0.0
173
     0
291
     0
 45
0.0
  0
VISUALSTYLE
  5
31
102
{ACAD_REACTORS
330
2A
102
}
330
2A
100
AcDbVisualStyle
  2
3D Hidden
 70
     6
 71
     1
 72
     2
 73
     2
 90
        0
 40
-0.6
 41
-30.0
 62
     5
 63
     7
421
 16777215
 74
     2
 91
        2
 64
     7
 65
   257
 75
     2
175
     1
 42
40.0
 92
        0
 66
   257
 43
1.0
 76
     1
 77
     6
 78
     2
 67
     7
 79
     3
170
     0
171
     0
290
     0
174
     0
 93
        1
 44
0.0
173
     0
291
     0
 45
0.0
  0
VISUALSTYLE
  5
30
102
{ACAD_REACTORS
330
2A
102
}
330
2A
100
AcDbVisualStyle
  2
3dWireframe
 70
     5
 71
     0
 72
     2
 73
     0
 90
        0
 40
-0.6
 41
-30.0
 62
     5
 63
     7
421
 16777215
 74
     1
 91
        4
 64
     7
 65
   257
 75
     1
175
     1
 42
1.0
 92
        0
 66
   257
 43
1.0
 76
     1
 77
     6
 78
     2
 67
     7
 79
     5
170
     0
171
     0
290
     0
174
     0
 93
        1
 44
0.0
173
     0
291
     0
 45
0.0
  0
VISUALSTYLE
  5
32
102
{ACAD_REACTORS
330
2A
102
}
330
2A
100
AcDbVisualStyle
  2
Basic
 70
     7
 71
     1
 72
     0
 73
     1
 90
        0
 40
-0.6
 41
-30.0
 62
     5
 63
     7
421
 16777215
 74
     0
 91
        4
 64
     7
 65
   257
 75
     1
175
     1
 42
1.0
 92
        8
 66
     7
 43
1.0
 76
     1
 77
     6
 78
     2
 67
     7
 79
     5
170
     0
171
     0
290
     0
174
     0
 93
        1
 44
0.0
173
     0
291
     1
 45
0.0
  0
VISUALSTYLE
  5
36
102
{ACAD_REACTORS
330
2A
102
}
330
2A
100
AcDbVisualStyle
  2
Brighten
 70
    12
 71
     2
 72
     2
 73
     0
 90
        0
 40
-0.6
 41
-30.0
 62
     5
 63
     7
421
 16777215
 74
     1
 91
        4
 64
     7
 65
   257
 75
     1
175
     1
 42
1.0
 92
        8
 66
     7
 43
1.0
 76
     1
 77
     6
 78
     2
 67
     7
 79
     5
170
     0
171
     0
290
     0
174
     0
 93
        1
 44
50.0
173
     0
291
     1
 45
0.0
  0
VISUALSTYLE
  5
3A
102
{ACAD_REACTORS
330
2A
102
}
330
2A
100
AcDbVisualStyle
  2
ColorChange
 70
    16
 71
     2
 72
     2
 73
     3
 90
        0
 40
-0.6
 41
-30.0
 62
     5
 63
     8
421
  8421504
 74
     1
 91
        4
 64
     7
 65
   257
 75
     1
175
     1
 42
1.0
 92
        8
 66
     8
424
  8421504
 43
1.0
 76
     1
 77
     6
 78
     2
 67
     7
 79
     5
170
     0
171
     0
290
     0
174
     0
 93
        1
 44
0.0
173
     0
291
     1
 45
0.0
  0
VISUALSTYLE
  5
34
102
{ACAD_REACTORS
330
2A
102
}
330
2A
100
AcDbVisualStyle
  2
Conceptual
 70
     9
 71
     3
 72
     2
 73
     0
 90
        0
 40
-0.6
 41
-30.0
 62
     5
 63
     7
421
 16777215
 74
     2
 91
        2
 64
     7
 65
   257
 75
     1
175
     1
 42
40.0
 92
        8
 66
     7
 43
1.0
 76
     1
 77
     6
 78
     2
 67
     7
 79
     3
170
     0
171
     0
290
     0
174
     0
 93
        1
 44
0.0
173
     0
291
     0
 45
0.0
  0
VISUALSTYLE
  5
35
102
{ACAD_REACTORS
330
2A
102
}
330
2A
100
AcDbVisualStyle
  2
Dim
 70
    11
 71
     2
 72
     2
 73
     0
 90
        0
 40
-0.6
 41
-30.0
 62
     5
 63
     7
421
 16777215
 74
     1
 91
        4
 64
     7
 65
   257
 75
     1
175
     1
 42
1.0
 92
        8
 66
     7
 43
1.0
 76
     1
 77
     6
 78
     2
 67
     7
 79
     5
170
     0
171
     0
290
     0
174
     0
 93
        1
 44
-50.0
173
     0
291
     1
 45
0.0
  0
VISUALSTYLE
  5
39
102
{ACAD_REACTORS
330
2A
102
}
330
2A
100
AcDbVisualStyle
  2
Facepattern
 70
    15
 71
     2
 72
     2
 73
     0
 90
        0
 40
-0.6
 41
-30.0
 62
     5
 63
     7
421
 16777215
 74
     1
 91
        4
 64
     7
 65
   257
 75
     1
175
     1
 42
1.0
 92
        8
 66
     7
 43
1.0
 76
     1
 77
     6
 78
     2
 67
     7
 79
     5
170
     0
171
     0
290
     0
174
     0
 93
        1
 44
0.0
173
     0
291
     1
 45
0.0
  0
VISUALSTYLE
  5
2B
102
{ACAD_REACTORS
330
2A
102
}
330
2A
100
AcDbVisualStyle
  2
Flat
 70
     0
 71
     2
 72
     1
 73
     1
 90
        2
 40
-0.6
 41
30.0
 62
     5
 63
     7
421
 16777215
 74
     0
 91
        4
 64
     7
 65
   257
 75
     1
175
     1
 42
1.0
 92
        8
 66
     7
 43
1.0
 76
     1
 77
     6
 78
     2
 67
     7
 79
     5
170
     0
171
     0
290
     0
174
     0
 93
       13
 44
0.0
173
     0
291
     1
 45
0.0
  0
VISUALSTYLE
  5
2C
102
{ACAD_REACTORS
330
2A
102
}
330
2A
100
AcDbVisualStyle
  2
FlatWithEdges
 70
     1
 71
     2
 72
     1
 73
     1
 90
        2
 40
-0.6
 41
30.0
 62
     5
 63
     7
421
 16777215
 74
     1
 91
        4
 64
     7
 65
   257
 75
     1
175
     1
 42
1.0
 92
        0
 66
   257
 43
1.0
 76
     1
 77
     6
 78
     2
 67
     7
 79
     5
170
     0
171
     0
290
     0
174
     0
 93
       13
 44
0.0
173
     0
291
     1
 45
0.0
  0
VISUALSTYLE
  5
2D
102
{ACAD_REACTORS
330
2A
102
}
330
2A
100
AcDbVisualStyle
  2
Gouraud
 70
     2
 71
     2
 72
     2
 73
     1
 90
        2
 40
-0.6
 41
30.0
 62
     5
 63
     7
421
 16777215
 74
     0
 91
        4
 64
     7
 65
   257
 75
     1
175
     1
 42
1.0
 92
        0
 66
     7
 43
1.0
 76
     1
 77
     6
 78
     2
 67
     7
 79
     5
170
     0
171
     0
290
     0
174
     0
 93
       13
 44
0.0
173
     0
291
     1
 45
0.0
  0
VISUALSTYLE
  5
2E
102
{ACAD_REACTORS
330
2A
102
}
330
2A
100
AcDbVisualStyle
  2
GouraudWithEdges
 70
     3
 71
     2
 72
     2
 73
     1
 90
        2
 40
-0.6
 41
30.0
 62
     5
 63
     7
421
 16777215
 74
     1
 91
        4
 64
     7
 65
   257
 75
     1
175
     1
 42
1.0
 92
        0
 66
   257
 43
1.0
 76
     1
 77
     6
 78
     2
 67
     7
 79
     5
170
     0
171
     0
290
     0
174
     0
 93
       13
 44
0.0
173
     0
291
     1
 45
0.0
  0
VISUALSTYLE
  5
38
102
{ACAD_REACTORS
330
2A
102
}
330
2A
100
AcDbVisualStyle
  2
Linepattern
 70
    14
 71
     2
 72
     2
 73
     0
 90
        0
 40
-0.6
 41
-30.0
 62
     5
 63
     7
421
 16777215
 74
     1
 91
        4
 64
     7
 65
   257
 75
     7
175
     7
 42
1.0
 92
        8
 66
     7
 43
1.0
 76
     1
 77
     6
 78
     2
 67
     7
 79
     5
170
     0
171
     0
290
     0
174
     0
 93
        1
 44
0.0
173
     0
291
     1
 45
0.0
  0
VISUALSTYLE
  5
33
102
{ACAD_REACTORS
330
2A
102
}
330
2A
100
AcDbVisualStyle
  2
Realistic
 70
     8
 71
     2
 72
     2
 73
     0
 90
        0
 40
-0.6
 41
-30.0
 62
     5
 63
     7
421
 16777215
 74
     1
 91
        0
 64
     7
 65
   257
 75
     1
175
     1
 42
1.0
 92
        8
 66
     8
424
  7895160
 43
1.0
 76
     1
 77
     6
 78
     2
 67
     7
 79
     5
170
     0
171
     0
290
     0
174
     0
 93
       13
 44
0.0
173
     0
291
     0
 45
0.0
  0
VISUALSTYLE
  5
37
102
{ACAD_REACTORS
330
2A
102
}
330
2A
100
AcDbVisualStyle
  2
Thicken
 70
    13
 71
     2
 72
     2
 73
     0
 90
        0
 40
-0.6
 41
-30.0
 62
     5
 63
     7
421
 16777215
 74
     1
 91
        4
 64
     7
 65
   257
 75
     1
175
     1
 42
1.0
 92
       12
 66
     7
 43
1.0
 76
     1
 77
     6
 78
     2
 67
     7
 79
     5
170
     0
171
     0
290
     0
174
     0
 93
        1
 44
0.0
173
     0
291
     1
 45
0.0
  0
ENDSEC
  0
EOF
